Song name
# A B C D E F G H I J K L M N O P Q R S T U V W X Y Z

Collective Soul - Gel tab

This is my first tab, so comment me if I got something wrong. I would be glad to change it if so.

E|-------------------------------------------------------------|
B|-------------------------------------------------------------|
G|-------------------------------------------------------------|
D|-------------------------------------------------------------|x2
A|---------6--7--------6-----6------------6--7-----------------|
E|--6--7---------6--7-----7--------6--7---------6--7--7--7--7--|



Verse
=====

Riff 1:
E|------------------------------------|
B|------------------------------------|
G|-------------------------999-10-9-7-|
D|-9-9-x-x-9---x-9---9-----999-10-9-7-|
A|-9-9-x-x-9---x-9---9-----777--8-7-5-|
E|-7-7-x-x-7---x-7---7----------------|

Riff 2:
E|-------------------------|
B|-------------------------|
G|-------------------------|
D|--7----------------------|
A|--7----------------------|
E|--5------------0-2-0-3-0-|

Riff 3:
E|-------------------------------------------------------|
B|-------------------------------------------------------|
G|-------------------------------------------------------|
D|-7------------------------7-7--------------------------|
A|-7------------------------5-7--------------------------|
E|-5------------------------5-5------------0-2-0-3-0-5-0-|


Chorus
======
E|---------------------------------------------------------------|
B|---------------------------------------------------------------|
G|------8-9-----------------------------8-9----------------------|
D|-8-9--8-9--8-9-------------------8-9--8-9--8-9---9-9-9-9-9-9-9-|
A|-8-9--6-7--8-9---6-----6---------8-9--6-7--8-9---9-9-9-9-9-9-9-|
E|-6-7-------6-7-------7-----------6-7-------6-7---7-7-7-7-7-7-7-|


Solo
====
Not sure if I got this right.

E|-8-------8------8------8----8--------8---------------------------------|
B|-8b------8------8b-----8b---8--------8b~~r-----------------------------|
G|--------------------------------------------9---7---9------------------|
D|--------------------------------------------------------7~~~~~~~~-7~~~-|
A|-----------------------------------------------------------------------|
E|-----------------------------------------------------------------------|


E|-----------------------------------------------------------------------|
B|-----------------10--------10--------10----------10--------------------|
G|------------------9b--------9b--------9b----------9b~~r--7------7---7--|
D|-7~~~--(7)/19\----------------------------------------------9-9--------|
A|-----------------------------------------------------------------------|
E|-----------------------------------------------------------------------|

  pm          pm..|
E|----------------------------------------10h12p10----10-------12b----12b|
B|----------------------10----10-10-10h12----------12----12p11-----------|
G|-------7-----7-7-9/11--------------------------------------------------|
D|-7-7h9-----------------------------------------------------------------|
A|-----------------------------------------------------------------------|
E|-----------------------------------------------------------------------|

     pm.........................................|
E|-----------------------------------------------13-12-10----------13-12-|
B|--------------------------------------12-11-10----------12-11-10-------|
G|-----10-9-7-------10-9-7-------10-9-7----------------------------------|
D|------------9-8-7--------9-8-7-----------------------------------------|
A|-----------------------------------------------------------------------|
E|-----------------------------------------------------------------------|


E|-10----------------10----------------10--------------------------------|
B|----12-11-10-11-12----12-11-10-11-12----12-11-10-----------------------|
G|-------------------------------------------------11--10--9-------9--10-|
D|------------------------------------------------------------12b--------|
A|-----------------------------------------------------------------------|
E|-----------------------------------------------------------------------|

E|-------------------|
B|-------------------|
G|-11--10--9---------|
D|------------12-----|
A|-------------------|
E|-------------------|
Tap to rate this tab
# A B C D E F G H I J K L M N O P Q R S T U V W X Y Z