Song name
# A B C D E F G H I J K L M N O P Q R S T U V W X Y Z

Collective Soul - Breathe tab

Help us improve GuitareTab! Take a short survey!
                            COLLECTIVE SOUL
                               BREATHE


STANDARD TUNING
EADGBe


h=hammer on
s=slide
p=pull off
b=bend

-----------------------------------------|
-----------------------------------------|
-----------------------------------------|
---7h9-9-9-9--4h6-6-6-6-4s2--------------|x4
-----------------------------------------|
-----------------------------------------|


w/ distortion
---------------------------------------------------|
---------------------------------------------------|
---------------------------------------------------|
---------------------------------------------------|
-------2-2----------2-2----------2-2----------2-2--|
---3p2-0-0------3p2-0-0------3p2-0-0------3p2-0-0--|


chorus
-------0---------------------0----------------|
-------0---------------------0----------------|
-------1--1h2p1h2p1----------1--1h2p1h2p1-4b--|
-------2------------2--------2----------------|x2
----22-2--------------2---22-2----------------|
----00-0------------------00-0----------------|

w/ distortion
---------------------------------------------------|
---------------------------------------------------|
---------------------------------------------------|
---------------------------------------------------|
-------2-2----------2-2----------2-2----------2-2--|
---3p2-0-0------3p2-0-0------3p2-0-0------3p2-0-0--|


chorus
-------0---------------------0----------------|
-------0---------------------0----------------|
-------1--1h2p1h2p1----------1--1h2p1h2p1-4b--|
-------2------------2--------2----------------|x2
----22-2--------------2---22-2----------------|
----00-0------------------00-0----------------|


--------------------------------------------------|
--------------------------------------------------|
--14b--12b--11b-----------------------------------|
-----------------14b--12b--11b--------------------|x2
--------------------------------14b--12b--10b-----|
--------------------------------------------------|

then the solo comes
thats it
peace
Related for Breathe tab