Guitaretab - guitar tabs
Song name
# A B C D E F G H I J K L M N O P Q R S T U V W X Y Z

Collective Soul - Georgia Girl tab

Collective Soul  Georgia Girl
2007 Album:  Afterwords
Tabbed by:  Jeff Martin
Tuning:  Step Down (EbAbDbGbBbEb)

Intro:  Guitar 1 (Clean w/Chorus and some Delay)
(Guitar (3) could be an acoustic and play the chords)

  A                                D
|-----------------------------------------:---------||
|------3p2---3p2----2-2/7-8p7---8p7---7--:----------||
|----------2----2-------------7-----7-----:---------||  X4
|----------------2-------------------7----:---------||
|-0-0-(This bass line sounds like only bass)-----:--||
|-----------------------------------------:---------||

Verse 1: (improvise a bit with this)

  A                                 D
|--------------------------------------------------:----||
|------2----2-2----2-------/7---7----7-7----7--7--:-----||
|---------2-----2----2-----/7------7------7----7--:-----||   X4
|---------2-----2----2-----/7------7------7----7--:-----||
|-0-0--------------------0-------------------------:----||
|--------------------------------------------------:----||

Enter Piano

  A                                D
|-----------------------------------------:----||
|------3p2---3p2----2-2/7-8p7---8p7---7--:-----||
|----------2----2-------------7-----7-----:----||  X2
|----------------2-------------------7----:----||
|-0-0-------------------------------------:----||
|-----------------------------------------:----||

Verse 2

  A                                 D
|--------------------------------------------------:----||
|------2----2-2----2-------/7---7----7-7----7--7--:-----||
|---------2-----2----2-----/7------7------7----7--:-----||   X4
|---------2-----2----2-----/7------7------7----7--:-----||
|-0-0--------------------0-------------------------:----||
|--------------------------------------------------:----||

Pre-chorus (Chorus):  (Listen to song for strum pattern and accent notes)
[ Tab from: http://www.guitaretab.com/c/collective-soul/95590.html ]
  Gbm          D              Gbm          D           Note: D could be=
|-2--------x--------2--------x----|  |--2--|
|-2--------7--------2--------7----|  |--3--|
|-2--------7--------2--------7----|  |--2--|
|-4--------7--------4--------7----|  |--0--|
|-4--------5--------4--------5----|  |--0--|
|-2--------x--------2--------x----|  |--0--|

Intro Lick X2

Verse 3

Guitar 2 (Distortion)

   A     D     A     D
|-x---x---x---x-:||
|-x---x---x---x-:||
|-x---7---x---7-:||  X2
|-7---7---7---7-:||
|-7---5---7---5-:||
|-5---x---5---x-:||

Guitar 1

  A                                 D
|--------------------------------------------------:----||
|------2----2-2----2-------/7---7----7-7----7--7--:-----||
|---------2-----2----2-----/7------7------7----7--:-----||   X4
|---------2-----2----2-----/7------7------7----7--:-----||
|-0-0--------------------0-------------------------:----||
|--------------------------------------------------:----||

Solo #1 (2:07)

|--------------------------------------------------||
|-----9-----------------------9--------------------||
|-2/6---9--6h7/9-9/14b16-14----9--6h7-7/14~~~~~----||
|--------------------------------------------------||
|--------------------------------------------------||
|--------------------------------------------------||

Power Chords A & D

Solo #2 (2:22) (I don't play much lead, so... any help???)... please post TIA
|---------------------------------------------------||
|-14b15 (V=Vibrato)-------------14b15(V)------------||
|---------------14-16-14-16------------14-16(V)-----||
|---------------------------------------------------||
|---------------------------------------------------||
|---------------------------------------------------||

|-------------------------------------------------||
|-------------------------------------------------||
|-14-16-14----------------------------------------||
|----------16-14-16-14-12-11h12/16(V)-------------||
|-------------------------------------------------||
|-------------------------------------------------||

Finish with opening riff.

My solo tabs need to be fininshed... and (of course)... improved upon... a lot!
Related for Georgia Girl tab