Guitaretab - guitar tabs
Song name
# A B C D E F G H I J K L M N O P Q R S T U V W X Y Z

Collective Soul - Goodnight Good Guy tab

                          COLLECTIVE SOUL
                         GOODNIGHT GOOD GUY


STANDARD TUNING
EADGBe


-----------------------------------------------|
-----------------------------------------------|
-----1h2-----1h2-----1h2--------1-2p1----------|
-2-2-----2-2-----2-2------0s2h4-------4p2------|x2
-2-2-----2-2-----2-2---------------------------|
-0-0-----0-0-----0-0---------------------------|

E                        F#
Somebody told me about a worn out distraction
A			    E
That I had let slip away
E			     F#
Then it comes back and rides my shoulders
A				  E
And burdens me every new day

A					 F#
Well I'll just sit here like a slow burn out
A			           B
And try to figure out how to do without you


chorus w/ distortion
E5		   B5	     C#5	     B5	 A5
Who's going to straighten me up when I'm leaning
E5             B5	 C#5             B5      A5
Who's going to soothe my heart when it's burning
E5             B5     C#5    A5                   B5
Who's going to be the one to tell me everything's alright
B
Well, Goodnight, Good Guy

-----------------------------------------------|
-----------------------------------------------|
-----1h2-----1h2-----1h2--------1-2p1----------|
-2-2-----2-2-----2-2------0s2h4-------4p2------|x2
-2-2-----2-2-----2-2---------------------------|
-0-0-----0-0-----0-0---------------------------|


E                         F#
I'll break the bread of a new day and wonder
A                      E
If Faith will carry me along

----------------------------|
----------------------------|
----------------------------|
---2p0---2p0----------------|
-------2-----2--------------|
----------------------------|
[ Tab from: http://www.guitaretab.com/c/collective-soul/3807.html ]
E                         F#
But days are longer as my heart gets weaker and
A		       E
I can only stay so strong

A					 F#
Well I'll just sit here like a wounded soul
A					B
Who's finding it difficult to just let go


chorus
E5		   B5	     C#5	     B5	 A5
Who's going to straighten me up when I'm leaning
E5             B5	 C#5             B5      A5
Who's going to soothe my heart when it's burning
E5             B5     C#5    A5                   B5
Who's going to be the one to tell me everything's alright
B
Well, Goodnight, Good Guy


w/ distortion
A5
I'm gonna let you sleep
Ab5				     B5
I'll let you fade off in the night
A5
I pray the Lord to keep
Ab5				    B5
I pray the Lord to hold you tight
B5
Well, goodnight.


solo
its not too hard

-12h16p12h16-11b-------------------------------------------|
----------------14b----------------------------------------|
-------------------13-14-16-16b-14b--13h14p13-16-----------|
-------------------------------------------------14-14-----|
-----------------------------------------------------------|
-----------------------------------------------------------|


-------------------------------------------12-14b--14b-12-|
----------------------------------------------------------|
----------------------------------------------------------|
 13h14p13--------------13p11--11-11-11--------------------|
-----------14-11h13-----------11-11-11--------------------|
-------------------------------9--9--9--------------------|


--------------------------------------------------------|
--------------------------------------------------------|
-13h16p13-13b-13----------------------------------------|
------------------16b--16-14b--14-13--------13b15-------|
-----------------------------------------13-------------|
--------------------------------------------------------|

thats pretty much it
peace
Related for Goodnight Good Guy tab
Goodnight Good Guy chords by Collective Soul