Song name
# A B C D E F G H I J K L M N O P Q R S T U V W X Y Z

Collin Raye - A Bible And A Bus Ticket Home tab

key of D

D
e----0h2--0--2--3--2--------]
b-------3------------3------]
d---------------------------]
g---------------------------]
a---------------------------]
e---------------------------]

                    A
e-----0h2---0---2---0----]
b---------3--------------]
d------------------------]
g------------------------]
a------------------------]
e------------------------]
Tap to rate this tab
# A B C D E F G H I J K L M N O P Q R S T U V W X Y Z