Song name
# A B C D E F G H I J K L M N O P Q R S T U V W X Y Z

Collins Edwyn - A Girl Like You tab

It's just the main riff in the song... The other ones I looked at didn't sound quite 
so I played around with it and this is what I got.

b=bend

e|--------------------------------------------------------------------------|
B|---------------------------------------11---8-----------------------------|
G|-------8---10--10b--8--------------8--------------------------------------|
D|--10-------------------10------10-----------------------------------------|
A|--------------------------------------------------------------------------|
E|--------------------------------------------------------------------------|

e|--------------------------------------------------------------------------|
B|--------------------------------------------------------------------------|
G|-------8---10--10b--8-----------------------------------------------------|
D|--10-------------------10------10-12-(12)-8-10----------------------------|
A|--------------------------------------------------------------------------|
E|--------------------------------------------------------------------------|

It's my first tab so don't make fun :)
Tap to rate this tab
# A B C D E F G H I J K L M N O P Q R S T U V W X Y Z