Guitaretab - guitar tabs
Song name
# A B C D E F G H I J K L M N O P Q R S T U V W X Y Z

Collins Phil - People Get Ready tab

Tabbed by: Jacob
Email:Deerslayer905@aol.com

Tuning:Standard


  "Once again I'm gonna shake..."
e|----------------------------------------------------------------------|
B|----------------------------------------------------------------------|
G|----------------------------------------------------------------------|
D|--------12----12-12-13-12-12-10-12----------10------------------------|
A|--10-10---10-----------------------10-12-13---------------------------|
E|----------------------------------------------------------------------|
[ Tab from: http://www.guitaretab.com/c/collins-phil/3844.html ]
e|----------------------------------------------------------------------|
B|----------------------------------------------------------------------|
G|----------------------------------------------------------------------|
D|--------12----12-12-13-12-12-10-12------------------------------------|
A|--10-10---10-----------------------10-8-6-5---------------------------|
E|-----------------------------------------------3----------------------|

  "People walking around..."
e|----------------------------------------------------------------------|
B|----------------------------------------------------------------------|
G|----------------------------------------------------------------------|
D|----------------------------------------------------------------------|
A|--------3-5-----------------------------------------------------------|
E|--3-5-6---------------------------------------------------------------|

The song is in Gm, so use your scales and the song is pretty simple.
Any questions, comments, or requests email me @ Deerslayer905@aol.com
Related for People Get Ready tab
Advertisement will be closed in 10 seconds