Song name
# A B C D E F G H I J K L M N O P Q R S T U V W X Y Z

Coma - Wrony tab

This is tab for acoustic guitar for song Wrony(The crows) of polish band called
Coma.(To be honest it is a song performed solo by Piotr Rogucki, leader of the
band). If you want exended tab, please click on guitar pro version, this is my
tab also. If you have any correctins or suggestions please add a comment below.

WRONY 

Intro:

E|-----5----5---5-----|-5---5---5-----|-5---5---5-----|-5---5---5-----|
H|----3----3---3-(3)--|----3---3-(3)--|----4---4-(4)--|----4---4-(4)--|
G|---3----3---3-------|---3---3-------|---3---3-------|---3---3-------|
D|--5-----------------|-5-------------|-5-------------|-5-------------|
A|-\----/-------------|---------------|---------------|---------------|
E|--\--/--------------|---------------|---------------|---------------|
  arpegio    

E|-3---3---3--|-5---5---5--|-----------|------------|
H|----4---4---|----6---6---|---3-4-3-3-|---3-4-4-3--|
G|---3---3----|---5---5----|--3-----3--|--3---------|
D|-5----------|-7----------|-5---------|-5----------|
A|------------|------------|-----------|------------|
E|------------|------------|-----------|------------|

E|--5---5---5-----|-5---5---5-----|-5---5---5-----|-5---5---5-----|
H|-----3---3-(3)--|----3---3-(3)--|----4---4-(4)--|----4---4-(4)--|
G|----3---3-------|---3---3-------|---3---3-------|---3---3-------|
D|--5-------------|-5-------------|-5-------------|-5-------------|
A|----------------|---------------|---------------|---------------|
E|----------------|---------------|---------------|---------------|
       
E|-3---3---3-|-5---5---5-|-----------|------------|
H|----4---4--|----6---6--|---3-4-3-3-|---3-4-4-3--|
G|---3---3---|---5---5---|--3-----3--|--3---------|
D|-5---------|-7---------|-5---------|-5----------|
A|-----------|-----------|-----------|------------|
E|-----------|-----------|-----------|------------|
                          \_________   __________/
                                    \ /
                                    2x
Verses:

E|--5---5---5-----|-5---5---5-----|-5---5---5-----|-5---5---5-----|
H|-----3---3-(3)--|----3---3-(3)--|----4---4-(4)--|----4---4-(4)--|
G|----3---3-------|---3---3-------|---3---3-------|---3---3-------|
D|--5-------------|-5-------------|-5-------------|-5-------------|
A|----------------|---------------|---------------|---------------|
E|----------------|---------------|---------------|---------------|
       
E|-3---3---3-|-5---5---5-|-----------|------------|
H|----4---4--|----6---6--|---3-4-3-3-|---3-4-4-3--|
G|---3---3---|---5---5---|--3-----3--|--3---------|
D|-5---------|-7---------|-5---------|-5----------|
A|-----------|-----------|-----------|------------|
E|-----------|-----------|-----------|------------|

Chorus: (nim zamienię się w kamień...)

E|-3---3---3-|-5---5---5-|----3---3-----|----3---3-----|
H|----4---4--|----6---6--|---3---3-(3)--|---3---3-(3)--|
G|---3---3---|---5---5---|--3---3-------|--3---3-------|
D|-5---------|-7---------|-5------------|-5------------|
A|-----------|-----------|--------------|--------------|
E|-----------|-----------|--------------|--------------|

Ending:

E|----3---3-----|----3---3-----|
H|---3---3-(3)--|---3---3-(3)--|
G|--3---3-------|--3---3-------|
D|-5------------|-5------------|
A|--------------|--------------|
E|--------------|--------------|
 
Tap to rate this tab
# A B C D E F G H I J K L M N O P Q R S T U V W X Y Z