Song name
# A B C D E F G H I J K L M N O P Q R S T U V W X Y Z

Concrete Sam - Heto Na tab

Help us improve GuitareTab! Take a short survey!
Song: Heto Na
Band: Concrete Sam
Tribute to: APO Hiking Society
Album: Kami nAPO Muna Ulit
Tabbed by: Gio Agudo


Intro I:
Gtr I
e|-------------9-9-9-9--9--9---------------9-9-9-9~---|
B|-9-9-9-9-9-9-9-9-9-10-10-10--9-9-9-9-9-9-9-9-9-10~--|
G|-9-9-9-8-8-8-----------------9-9-9-8-8-8------------|
D|----------------------------------------------------|
A|----------------------------------------------------|
E|----------------------------------------------------|
   . . . . . . . . . . . . . . . . . . . . . . . .

Gtr II
e|----------------------------------------------------|
B|----------------------------------------------------|
G|-----------------------------9~----------------9~---|
D|-----------------------------9~----------------9~---|
A|-----------------------------7~----------------7~---|
E|----------------------------------------------------|


Intro II:
Gtr I
e|---------------------|
B|---------------------|
G|-9-9999999-9-9999999-|
D|-9-9999999-9-9999999-|
A|-7-7777777-7-9999999-|
E|---------------------|
   .         .

Gtr II
e|----------------------------------|
B|----------------------------------|
G|-----------9999--/8888--/6666--/4-|
D|----------------------------------|
A|-----------7777--/6666--/4444--/2-|
E|----------------------------------|  


Verse I:
Gtr I
e|-------------------------------------------------|
B|-------------------------------------------------|
G|-------------------------------------------------|
D|-999-999-999-------------------------------------|
A|-777-777-777-777-777-777-777-777-777-666-666-666-|
E|-------------555-555-555-555-555-555-444-444-444-|
   ... ... ... ... ... ... ... ... ... ... ... ...

Gtr II
e|-------------------------------------------------|
B|-999-999-999-------------------------------------|
G|-999-999-999-999-999-999-999-999-999-999-999-999-|
D|-------------777-777-777-777-777-777-666-666-666-|
A|-------------------------------------------------|
E|-------------------------------------------------|
   ... ... ... ... ... ... ... ... ... ... ... ...

Gtr I
e|--------------------------------|
B|--------------------------------|
G|-----------9999999999-----------|
D|-7777-9999-9999999999-7777-9999-|
A|-7777-9999-7777777777-7777-9999-|
E|-5555-7777------------5555-7777-|

Gtr II
e|-----------------------------------------------------------|
B|-----10--------10--------10-------10--------10--------10---|
G|---9----9----9----9----9----9---9----9----9----9----9----9-|
D|-7---------9----------------------------7---------9--------|
A|---------------------7--------7----------------------------|
E|-----------------------------------------------------------|

Gtr I
e|-------------------------------------------------|
B|-------------------------------------------------|
G|-------------------------------------------------|
D|-999-999-999-------------------------------------|
A|-777-777-777-777-777-777-777-777-777-666-666-666-|
E|-------------555-555-555-555-555-555-444-444-444-|
   ... ... ... ... ... ... ... ... ... ... ... ...

Gtr II
e|-------------------------------------------------|
B|-999-999-999-------------------------------------|
G|-999-999-999-999-999-999-999-999-999-999-999-999-|
D|-------------777-777-777-777-777-777-666-666-666-|
A|-------------------------------------------------|
E|-------------------------------------------------|
   ... ... ... ... ... ... ... ... ... ... ... ...

Gtr I
e|-----------|
B|-----------|
G|-----------|
D|-7777-9999-|
A|-7777-9999-|
E|-5555-7777-|

Gtr II
e|--------------------|
B|-----10--------10---|
G|---9----9----9----9-|
D|-7---------9--------|
A|--------------------|
E|--------------------|


Refrain:
e|--------------------------------|
B|--------------------------------|
G|-----------9999999999-----------|
D|-7777-9999-9999999999-7777-9999-|
A|-7777-9999-7777777777-7777-9999-|
E|-5555-7777------------5555-7777-|


Bridge:
e|-------------------------------------------------------------|
B|-------------------------------------------------------------|
G|-3-3-3-3-3-3-3--/5-5-5-5-5-5-5--/6-6-6-6-6-6-6--/8-x-8-x-8-x-|
D|-3-3-3-3-3-3-3--/5-5-5-5-5-5-5--/4-4-4-4-4-4-4--/8-x-8-x-8-x-|
A|-1-1-1-1-1-1-1--/3-3-3-3-3-3-3--/4-4-4-4-4-4-4--/6-x-6-x-6-x-|
E|-------------------------------------------------------------|


Chorus:
e|-------------------|
B|-------------------|
G|-6666666-----------|
D|-6666666-4444-6666-|
A|-4444444-4444-6666-|
E|---------2222-4444-|


Repeat Intro II


Verse II:
Gtr I
e|-------------------------------------------------|
B|-------------------------------------------------|
G|-------------------------------------------------|
D|-999-999-999-------------------------------------|
A|-777-777-777-777-777-777-777-777-777-666-666-666-|
E|-------------555-555-555-555-555-555-444-444-444-|
   ... ... ... ... ... ... ... ... ... ... ... ...

e|-------------------------------------------------|
B|-------------------------------------------------|
G|-------------------------------------------------|
D|-999-999-999-------------------------------------|
A|-777-777-777-777-777-777-777-777-777-666-666-666-|
E|-------------555-555-555-555-555-555-444-444-444-|
   ... ... ... ... ... ... ... ... ... ... ... ...

Gtr II
e|-------------------------------------------------|
B|-999-999-999-------------------------------------|
G|-999-999-999-999-999-999-999-999-999-999-999-999-|
D|-------------777-777-777-777-777-777-666-666-666-|
A|-------------------------------------------------|
E|-------------------------------------------------|
   ... ... ... ... ... ... ... ... ... ... ... ...

e|---------------------------------|------------------------|
B|---------------------------------|------------------------|
G|-9--8-----9-8----9--8-----9-8----|-9999--/8888--/6666--/4-|
D|-------9------9--------9------9--|------------------------|
A|---------------------------------|-7777--/6666--/4444--/2-|
E|---------------------------------|------------------------|


Repeat Refrain, Bridge, Chorus...

Chorus II:
Gtr I
e|-------------------|
B|-------------------|
G|-6666666-----------|
D|-6666666-4444-6666-|
A|-4444444-4444-6666-|
E|---------2222-4444-|

Gtr II
e|----------9-------------9--------------9-------------9---|
B|---7--7-----7----7--7-----7----7--7------7----7--7-----7-|
G|-6------6------6------6------6------6-------6------6-----|
D|---------------------------------------------------------|
A|---------------------------------------------------------|
E|---------------------------------------------------------|


Bridge II:
e|-------------------------------------------------------------|
B|-------------------------------------------------------------|
G|-3-3-3-3-3-3-3--/5-5-5-5-5-5-5--/6-6-6-6-6-6-6--/8-x-8-x-8-x-|
D|-3-3-3-3-3-3-3--/5-5-5-5-5-5-5--/4-4-4-4-4-4-4--/8-x-8-x-8-x-|
A|-1-1-1-1-1-1-1--/3-3-3-3-3-3-3--/4-4-4-4-4-4-4--/6-x-6-x-6-x-|
E|-------------------------------------------------------------|


Drums....


Outro:
Gtr I
e|-------------------|
B|-------------------|
G|-6666666-----------|
D|-6666666-4444-6666-|
A|-4444444-4444-6666-|
E|---------2222-4444-|

Gtr II
e|-------9------------9----|
B|----7-----7------7-----7-|
G|-6------------6----------|
D|-------------------------|
A|-------------------------|
E|-------------------------|

Eto na yung tab ng buong kanta,
pkingan nyo nlng ung buong kanta para sa timing..pki rate na dn,tnx..

Related for Heto Na tab