Song name
# A B C D E F G H I J K L M N O P Q R S T U V W X Y Z

Conducting From The Grave - When Legends Become Dust tab

-----------------------------------------------------------------
When Legends Become Dust - Conducting from the Grave
-----------------------------------------------------------------
Tabbed by: Jon Cole	
Email:BatmJon@live.com	

Tuning:Drop C (CGCFAD)

This Is my first tab so I understand it's not going to be perfect but hopefully it'll help 

you out.

. Palm Mute
p Pull off
h Hammer On
tp Tap





D|----------------------------------------------------------------------|
A|----------------------------------------------------------------------|
F|---------------------------5---7--------------------------------------|
C|0-1-3------5-------7---3-----------7---------3-------5-------3--------|
G|0-1-3----------6-----------------------6-5-6---6-5-6---6-5-6---6-5-6--|
C|0-1-3--3-3---3---3---3---3---3---3---3--------------------------------|
         .  .   .   .   .   .   .   .   .

D|-----------------------------------------------13h17p13---------------|
A|--------------------------------------------15----------15------------|
F|--------------------5---7----------------14----------------14---------|
C|----5-------7----3----------7---------15----------------------15------|
G|--------6-----------------------13h17----------------------------13h17|
C|3-3---3---3---3---3---3---3-------------------------------------------|
  . .   .   .   .   .   .   . 

D|---------13h18--------------------------------------------------------|
A|------15--------------------------------------------------------------|
F|---15--------------------------------5---7----------------------------|
C|15-------------------5-------7---3-----------7--------3---------------|
G|-------------------------6----------------------6-5-6---6-5-6-1-3-1-0-|
C|-----------------3-3---3---3---3---3---3---3--3-----------------------|
                   . .   .   .   .   .   .   .  .

D|----------------------------------------------------------------------|
A|----------------------------------------------------------------------|
F|--------------------------5---7---------------------------------------|
C|----------5-------7---3-----------7---1h5p1h5p1h5p1h5-0h3p0h3p0h3p0h3-|
G|1-0-----------6-------------------------------------------------------|
C|----4--3-3---3---3---3---3---3---3------------------------------------|
         . .   .   .   .   .   .   . 	   

D|----------------------------------------------------------------------|
A|---------------------------------11-10-11-10-8-11-10-11-10-7-11-10-7--|
F|----------------------------------------------------------------------|
C|----------------------------------------------------------------------|
G|3h6p3h6p3h6p3h6-1h5p1h5p1h5p1h5---------------------------------------|
C|----------------------------------------------------------------------|


D|11-10-11-10-8-10-8----8-----------------------------------------------|
A|-------------------11---11-10-11-10-7-11-10-11-10-8-11-10-11-10-7-8-7-|
F|----------------------------------------------------------------------|
C|----------------------------------------------------------------------|
G|----------------------------------------------------------------------|
C|----------------------------------------------------------------------|


D|----------------------------------------------------------------------|
A|----------------------------------------------------------------------|
F|8-7-8-7---------------------------------------------------------------|
C|--------10-8-7--------8------10-----12------1----------3----------5---|
G|---------------9------6------8------10------1----------3----------5---|
C|--------------------------------------------1----------3----------5---|

(Play 4X)
D|----------------------------6h10tp15p10p6----------------------------3-|
A|--------------------------8----------------------------------------3--|
F|----10--------8-7-------7----------------------7--------3-2-----------|
C|-------8--5-8-----8--5-5-------------------------5--1-5-----3--5-5----|
G|6-6----------------------------------------3-3------------------------|
C|----------------------------------------------------------------------|
    .                    .                     .                   .

D|6p3-5p3------------|
A|---------6p3-4p3---|
F|-------------------|
C|-------------------|
G|-------------------|
C|-------------------|
Tap to rate this tab
# A B C D E F G H I J K L M N O P Q R S T U V W X Y Z