Song name
# A B C D E F G H I J K L M N O P Q R S T U V W X Y Z

Connan Mockasin - Its Choade My Dear tab

Song: It's Choade My Dear
Artist: Connan Mockasin
Album: Forever Dolphin Love
http://www.myspace.com/connanmockasin

Tabbed by: L. A Rai

Intro/Verses:

E----------------------------------------------3--------|
B---------------7/8/7--------------------------3--------|
G----8/9-/8-----7/8/7-----6/7/6------9-/10/9---4--------|
D----9/10/9---------------7/8/7------10/11/10--5--------|
A-----------5-5--------------------------------5--------|
E-7-7-----------------5-5---------8-8----------3--------|

Basically these chords:

E-7-----5--8--3---------------|
B-7--7--5--8--3---------------|
G-8--7--6--9--4---------------|
D-9--7--7--10-5---------------|
A-9--5--7--10-5---------------|
E-7-----5--8--3---------------|

Chorus:

E-5--7--3--5--7--3--0--2--7--5--3--0--3--2-----|
B-5--7--3--5--7--3--0--2--7--5--3--0--3--2-----|
G-6--8--4--6--8--4--1--3--8--6--4--1--4--3-----|
D-7--9--5--7--9--5--2--4--9--7--5--2--5--4-----|
A-7--9--5--7--9--5--2--4--9--7--5--2--5--4-----|
E-5--7--3--5--7--3--0--2--7--5--3--0--3--2-----|

Outro:

Plucking these chords

E-10--9-----------8---7--7---------|
B-10--9---11--10--8---7--8--8------|
G-11--10--11--10--9---7--9--8------|
D-12--11--11--10--10--9--9--8------|
A-12--11--9---8---10--9--7--6------|
E-10--9-----------8---7------------|


Fantastic song!

and if you get a chance, check out my original music:

http://soundcloud.com/laura-rai

Thanks :)
Tap to rate this tab
 
# A B C D E F G H I J K L M N O P Q R S T U V W X Y Z