Song name
# A B C D E F G H I J K L M N O P Q R S T U V W X Y Z

Conor Oberst And The Mystic Valley Band - Ten Women tab

this is my first tab, but I think I got it pretty close.


e|-0-----0---------0-----0-----------------0--------------------|
B|--2-0---2-0-------2-0---2-0------2-0------2-0-----------------|
G|-----2-----2---------2-----2-2h4-------------2-2h4-----2-2-4--|
D|------------2h4---------------------2h4------------2h4--------|
A|--------------------------------------------------------------|
E|--------------------------------------------------------------|

e|-2p0---3-3p0-0-2-0-------0/3p2-------|
B|-----2-------------2-----------2-4-2-|
G|---------------------2/4-------------|
D|-------------------------------------|
A|-------------------------------------|
E|-------------------------------------|
Tap to rate this tab
# A B C D E F G H I J K L M N O P Q R S T U V W X Y Z