Song name
# A B C D E F G H I J K L M N O P Q R S T U V W X Y Z

Control Machete - Nostalgia tab

-------------------------------------------------------------------------------
			NOSTALGIA - Control Machete
-------------------------------------------------------------------------------
Tabbed by:Rafa88offspring
Email: rafa88offspring@hotmail.com

Tuning: Drop D (DADgbe)

Aquí va esta excelente rola de mis paisanos de Monterrey, Nuevo Leon.

Intro
e|---------|
B|---------|
G|---------|
D|-0----5--|
A|-0----3--|
D|-0----0--|

Versos y Coro
e|------------------|
B|------------------|
G|------------------|
D|-0-------5--------|
A|-0-7-8-7-3-5-8-7--|
D|-0-------0--------|

Cuando se detiene
e|--------|
B|--------|
G|--------|
D|-55-55--|
A|-33-33--|
D|-00-00--|

Ahi está quien dijo que lo simple no es bueno? cualquier cosa ahi esta mi
mail.

| /  slide up
| \  slide down
| h  hammer-on
| p  pull-off
| ~  vibrato
| +  harmonic
| x  Mute note
===============================================================================
Tap to rate this tab
# A B C D E F G H I J K L M N O P Q R S T U V W X Y Z