Song name
# A B C D E F G H I J K L M N O P Q R S T U V W X Y Z

Converge - Hell To Pay tab

-----------------------------------------------------------------
Hell To Pay - Converge
-----------------------------------------------------------------
Tabbed by: Jake Miller (millarso)
Email: millarso2.0@gmail.com
Tuning: Drop C

Section 1/Intro (Clean)
Guitar
D|-0--------------3-3--3-3p0---6---6\--0--------------3-3--0--0-0------|
A|-5--0-0--0--0---x------x-------------5--0-0--0--0---x--------4-4-4h5-|
F|----4-4--3--3p0-3------4--4/6-6---------4-4--3--3p0-3----------------|
C|---------------------------------------------------------------------|
G|---------------------------------------------------------------------|
C|---------------------------------------------------------------------|

D|-0--------------3-3--3-3p0----6---6\--0--------------3---0--0-0------|
A|-5--0-0--0--0---x------x--------------5--0-0--0--0---x-------4-4-4h5-|
F|----4-4--3--3p0-3------3p0-4/6-6---------4-4--3--3p0-3---------------|
C|---------------------------------------------------------------------|
G|---------------------------------------------------------------------|
C|---------------------------------------------------------------------|

Section 2
For this section, because of the notes I'm hearing are two low for a guitar in drop C, I 
think there might be two bass tracks.
I'm going to tab the bassline in this section for that reasion

Guitar
D|-0-------------------------------------------------------------|
A|-5-(let-ring)--------------------------------------------------|
F|---------------------------------------------------------------|
C|---------------------------------------------------------------|
G|---------------------------------------------------------------|
C|---------------------------------------------------------------|

Bass
F|-----------------------------------------------------|
C|-(5-2--2--2--2--2--2--2-2-0-5-2--2--2-2-0)---------5-|
G|-------------------------------------------0-2-5-----|x2
C|--5-2--2--2--2--2--2--2-2-0-5-2--2--2-2-0--------6---|
One track plays the parentheses instead of the main. If you wanted one bassist could 
just pick both notes in the octave for live performance sake.

Section 3
Guitar
D|-7---------8/11-------------12\-------6---6---6---6---6---6---6-|
A|---8------------12------------------8---8---8---8---8---8---8---|
F|-----9-8-9---------13-12-13-------------------------------------|
C|----------------------------------------------------------------|
G|----------------------------------------------------------------|
C|----------------------------------------------------------------|

Bass
F|-------------------------------------------------------|
C|-(5-2--2--2--2)-----7--------(5-2--2--2-2-0)---------5-|
G|----------------5-7---7-5--------------------0-2-5-----|
C|--5-2--2--2--2------------5-7-5-2--2--2-2-0--------6---|

Guitar
D|-7---------8/11-------------12\------12--12--12--14--14--15----|
A|---8------------12----------------/15--15--15--17--17--17--17\-|
F|-----9-8-9---------13-12-13------------------------------------|
C|---------------------------------------------------------------|
G|---------------------------------------------------------------|
C|---------------------------------------------------------------|

Bass
F|-----------------------------------------------------|
C|-(5-2--2--2--2--2--2--2-2-0-5-2--2--2-2-0)---------5-|
G|-------------------------------------------0-2-5-----|
C|--5-2--2--2--2--2--2--2-2-0-5-2--2--2-2-0--------6---|

Guitar
D|-7---------8/11-------------12\-------6---6---6---6---6---6---6-|
A|---8------------12------------------8---8---8---8---8---8---8---|
F|-----9-8-9---------13-12-13-------------------------------------|
C|----------------------------------------------------------------|
G|----------------------------------------------------------------|
C|----------------------------------------------------------------|

Bass
F|-------------------------------------------------------|
C|-(5-2--2--2--2)--------------(5-2--2--2-2-0)---------5-|
G|----------------5-7-7------------------------0-2-5-----|
C|--5-2--2--2--2----------5-7-5-5-2--2--2-2-0--------6---|

Guitar
D|-7---------8/11-------------12\------12--12--12--14--14--15----|
A|---8------------12----------------/15--15--15--17--17--17--17\-|
F|-----9-8-9---------13-12-13------------------------------------|
C|---------------------------------------------------------------|
G|---------------------------------------------------------------|
C|---------------------------------------------------------------|

Bass
F|-----------------------------------------------------|
C|-(5-2--2--2--2--2--2--2-2-0-5-2--2--2-2-0)---------5-|
G|-------------------------------------------0-2-5-----|
C|--5-2--2--2--2--2--2--2-2-0-5-2--2--2-2-0--------6---|

Section 4 (I'm back to just doing the guitar here again, sorry)
Guitar
D|-------------------------------------------------------------------------|
A|-0-0-0-0-0-0-0--0--0-0-0-0-0-0---------0-0-0-0-0-0-----------------------|
F|-0-0-0-0-0-0-0--0--0-0-0-0-0-0---------0-0-0-0-0-0-12-12-12-12-12-12-12\-|
C|-7-8-8-7-8-7-5--5--7-8-8-7-8-7-11--11\-7-8-8-7-8-7-11-11-11-11-11-11-11\-|x2
G|-7-8-8-7-8-7-5--5--7-8-8-7-8-7-11--11\-7-8-8-7-8-7-12-12-12-12-12-12-12\-|
C|-7-8-8-7-8-7-5--5--7-8-8-7-8-7-11--11\-7-8-8-7-8-7-----------------------|

D|-------------|
A|-0-0-0-0-0-0-|
F|-0-0-0-0-0-0-|
C|-7-8-8-7-8-7-|
G|-7-8-8-7-8-7-|
C|-7-8-8-7-8-7-|

Section 5
D|---------0----|
A|---------0~---|
F|-0--0-0--0~---|x4
C|-5--2-2--1~---|(probably best to whammy that last chord if you have one, push on the 
neck otherwise)
G|-5--2-2--1~---|
C|-5--2-2--1~---|

-Repeat Section 2 (without guitar note)
-Repeat Section 3
-Repeat Section 4

Section 6
Guitar (two tracks are played with a slight delay which makes the sound far messier)
D|-0--------------3-3--3-3p0---6---6\--0--------------3-3--0--0-0------|
A|-5--0-0--0--0---x------x-------------5--0-0--0--0---x--------4-4-4h5-|
F|----4-4--3--3p0-3------4--4/6-6---------4-4--3--3p0-3----------------|
C|---------------------------------------------------------------------|
G|---------------------------------------------------------------------|
C|---------------------------------------------------------------------|

D|-0--------------3-3--3-3p0----6---6\--0--------------3---0--0-0------|
A|-5--0-0--0--0---x------x--------------5--0-0--0--0---x-------4-4-4h5-|
F|----4-4--3--3p0-3------3p0-4/6-6---------4-4--3--3p0-3---------------|
C|---------------------------------------------------------------------|
G|---------------------------------------------------------------------|
C|---------------------------------------------------------------------|
   TP TPTP TP TP

Don't be afraid to play the above section very messy. It's supposed to be chaotic.

Section 7
D|-------------|
A|-0--0-0--0---|
F|-0--0-0--0---|x4
C|-5--2-2--1---|
G|-5--2-2--1---|
C|-5--2-2--1---|

Guitar 1(tremolo picking)
D|-------------|
A|-8----5--4---|
F|-7----4--3---|x4
C|-5----2--1---|
G|-------------|
C|-------------|

Guitar 2
D|-------------|
A|-0--0-0--0---|
F|-0--0-0--0---|x4
C|-5--2-2--1---|
G|-5--2-2--1---|
C|-5--2-2--1---|

Both Guitars
D|--------------------|
A|-0--0-0--0---0--0---|
F|-0--0-0--0---0--0---|
C|-5--2-2--1---5--2~--|
G|-5--2-2--1---5--2~--|
C|-5--2-2--1---5--2~--|

This is a very distonal, muddy song, but this should be a good representation.
Please rate & comment.
Thanks,
millarso
Tap to rate this tab
# A B C D E F G H I J K L M N O P Q R S T U V W X Y Z