Song name
# A B C D E F G H I J K L M N O P Q R S T U V W X Y Z

Coral - Dreaming Of You tab

Thanks to Phil for the original tab, I've slowed the song right
down and this is what I hear, and it sounds spot on when played!
Cheers, Steve

e------------------------------------------------------------------|
b------------------------------------------------------------------|
g---4-5-5s7-5-4--5-5---------------4-5-5s7-5-4h5p4---5-5---5-----7-|
d-7-------------7-----5---5---5--7-----------------7-----7---7s9---|
a-------------------7---7---7--------------------------------------|
E------------------------------------------------------------------|

e---8--------3-----------------------------------------------------|
b----5-8-3h5---3h5p3-5-4---5-----3-----3---------------1-----------|
g-5----------------------5---3h4---3h4---3h4-3h4---0h2-------------|
d------------------------------------------------5-------3-3-2-0-2-|
a----------------------------------------------------------------0-|
E------------------------------------------------------------------|

e---------------------0--------------------------------8---7-|
b-------3-1-----------------1-----------------1--------10--9-|
g-----0-----------5-----0h2---0h2p0-----0-0h2-------5--10--9-|
d-0h2-------2-2s5---3---------------3-2---------2s7----10--9-|
a------------------------------------------------------8---7-|
E------------------------------------------------------------|

For any corrections, email steve@debancruz.co.uk
www.debancruz.co.uk
Tap to rate this tab
# A B C D E F G H I J K L M N O P Q R S T U V W X Y Z