Song name
# A B C D E F G H I J K L M N O P Q R S T U V W X Y Z

Corey Smith - Carolina tab

-------------------------------------------------------------------------------
			     CAROLINA - Corey Smith
-------------------------------------------------------------------------------
Tabbed by:Zach
Email:

A very cool acoustic solo

Tuning:

e|------------------------------------------------------------------|
B|---------------------------------7h8-10-8\7-----------------------|
G|---------------------7----7-6---------------9p7/9-----7p9-7-------|
D|--------------7---7--7h9------7-------------------9p7-------------|
A|-7/9--7h5-7/9---9-------------------------------------------------|
E|------------------------------------------------------------------|

e|--------------------------------------------------------|
B|--10h12p10-----------------------------------8-8--------|
G|-----------11p9-------------------------9---------------|
D|----------------12p9h12----------12-12---12-------------|
A|--------------------------------------------------------|
E|--------------------------------------------------------|

************************************

| /   slide up
| \   slide down
| h   hammer-on
| p   pull-off
| ~   vibrato
| +   harmonic
| x   Mute note
| b   Bend
| pb  Pre-bend
| br  Bend release
| pbr Pre-bend release
| brb Bend release bend

************************************
Tap to rate this tab
# A B C D E F G H I J K L M N O P Q R S T U V W X Y Z