Song name
# A B C D E F G H I J K L M N O P Q R S T U V W X Y Z

Corey Taylor - Merry X-m tab

|----------------------------------------------------------------------------|
|--11-11-11-11-11-11-11-14-7-9-11-11-11-12-12-12-12-12-11-11-11-14-14-11-9-7-|    Intro
|----------------------------------------------------------------------------|
|----------------------------------------------------------------------------|
|----------------------------------------------------------------------------|
|----------------------------------------------------------------------------|


|--2
|--2
|--3
|--4
|--4 Pre- chorus
|--2


CHORUS :

|----------------------------------------|
|----------------------------------------|
|--4-------4-6---6---4-6---4---4-6---6-4-|
|--4-----4-4-6-4-6-4-4-6-4-4-4-4-6-4-6-4-|
|--2-----4-2-4-4-4-4-2-4-4-2-4-2-4-4-4-2-|.....let the last one keep vibrating...
|--------2-----2---2-----2---2-----2-----|


 After chorus:

|----------------------------------|
|--11-11-11-11-11-11-14-14-11-9-7--|
|----------------------------------|
|----------------------------------|
|----------------------------------|
|----------------------------------|



Palm muted riffing:

|----------------------------------------------------------------------------------------|
|----------------------------------------------------------------------------------------|
|----------------------------------------------------------------------------------------|
|----------------------------------------------------------------------------------------|
|--4-4-4-4-----9-9-11-11-4-4-4-4-4-4-4-9-9-11-11-4-4-9-8-6-11-9-8-4-4-9-11-4-4-6---8-9-8-|
|--2-2-2-2-----7-7-9--9--2-2-2-2-2-2-2-7-7-9--9--2-2-7-6-4-9--7-6-2-2-7-9--2-2-4---6-7-6-|
   * * * *     * * *  *   * * * * * * * * * * * * * * * * * * * * * * * ********* *  ****

|---------------|
|---------------|
|---------------|
|---------------|
|--6-11-9-8-6-4-|
|--4-9--7-6-4-2-|
   ************                                                   * = palm muted



CHORUS :

|-----------------------------------------|
|-----------------------------------------|
|--4-------4-6---6---4-6---4---4-6---6-4--|
|--4-----4-4-6-4-6-4-4-6-4-4-4-4-6-4-6-4--|
|--2-----4-2-4-4-4-4-2-4-4-2-4-2-4-4-4-2--|.....and make the last stroke count for something..
|--------2-----2---2-----2---2-----2------|


OUTRO :




|--------------------------------------|
|--11-11-11-11-11-11-14-14-11-9-7---7--|
|---------------------------------6----|
|--------------------------------------|
|--------------------------------------|
|--------------------------------------|                         OR



|-----------------------------------------|
|-----------------------------------------|
|--15-15-15-15-15-15-18-18-15-13-11----11-|
|-----------------------------------11----|
|-----------------------------------------|
|-----------------------------------------|
Tap to rate this tab
# A B C D E F G H I J K L M N O P Q R S T U V W X Y Z