Corinne Bailey Rae - Id Do It All Again tab

    _______________________
   / Corinne Bailey Rae   /
  / I'd Do It All Again  /
 / The Sea              /
/______________________/

This is Corinne's acoustic guitar part.
She picks and strums the notes with her fingers.


 Verse:
  Bm7                               E9
|---------------------------------|---------------------------------|
|---------7---------------7-------|---------7---------------7-------|
|-----7-----7---------7-----7-----|-----7-----7---------7-----------|
|---7---------7-----7---------7---|---6---------6-----6-------------|
|---------------------------------|-7-------------7-----------------|
|-7-------------7-7---------------|-----------------0---------------|

  A#m7(b5)                          F#7
|---------------------------------|---------------------------------|
|---------5---------------5-------|---------2---------------2-------|
|-----6-----6---------6-----6-----|-----3-----3---------3-----3-----|
|---6---------6-----6---------6---|---2---------2-----2---------2---|
|---------------------------------|---------------------------------|
|-6-------------6-6---------------|-2-------------2-2---------------|

  Bm7                               E9
|---------------------------------|---------------------------------|
|---------7---------------7-------|---------7---------------7-------|
|-----7-----7---------7-----7-----|-----7-----7---------7-----------|
|---7---------7-----7---------7---|---6---------6-----6-------------|
|---------------------------------|-7-------------7-----------------|
|-7-------------7-7---------------|-----------------0---------------|

  A#m7                              F#7
|---------------------------------|---------------------------------|
|---------6---------------6-------|---------2-----------------------|
|-----6-----6---------6-----6-----|-----3-----3---------------------|
|---6---------6-----6---------6---|---2---------2-------------------|
|---------------------------------|---------------------------------|
|-6-------------6-6---------------|-2-------------------------------|



 Verse:
Corinne's acoustic guitar is out, and an electric guitar takes over:

  Bm9                               E13
|---9-----9---------9-----9----12-|----------9-----9-----9----9-----|
|----10----10--10----10----10-----|---10------10----10----10----9---|
|------11----11--------11----11---|-------11----11----11----11----9-|
|---------------------------------|---------------------------------|
|---------------------------------|---------------------------------|
|---------------------------------|---------------------------------|

  A#m7(b5)                          F#7
|(9)------------------12\---9\----|-6-------6-------7-------9-------|
|(9)------------------------------|---------------------------------|
|(9)------------------13\---9\----|-6-------6-------7-------9-------|
|---------------------------------|---------------------------------|
|---------------------------------|---------------------------------|
|---------------------------------|---------------------------------|

  Bm7                               E9
|--14----14----14--14----14----14-|----14----14----14----14----14---|
|----15----------15--15-----------|15----15----15----15----15-------|
|------16--------------16---------|--16----16----16----16----16-----|
|---------------------------------|---------------------------------|
|---------------------------------|---------------------------------|
|---------------------------------|---------------------------------|

  A#m7                              F#7(b9)
|-----------13-13-13\---9\----6\--|----------------12^------6^h9p6--|
|---------------------------------|----------------14^------8^------|
|-----------13-13-13\--10\----6\--|----------------15^------9^------|
|---------------------------------|----------------14^--------------|
|---------------------------------|---------------------------------|
|---------------------------------|---------------------------------|



 Bridge:
Corinne's guitar is in again from here and on.

  Bm7                               E9
|---------------------------------|---------------------------------|
|---------7---------------7-------|---------7-----------------------|
|-----7-----7---------7-----7-----|-----7-----7---------------------|
|---7---------7-----7---------7---|---6---------6-------------------|
|---------------------------------|-7-------------------------------|
|-7-------------7-7---------------|---------------------------------|

(Gently strum the chords.)
    Dmaj9                             E/D                              4x
||--5---5---5---5---5---5---5---5---|-0---0---0---0---0---0---0---0----||
||o-7---7---7---7---7---7---7---7---|-5---5---5---5---5---5---5---5---o||
||--6---6---6---6---6---6---6---6---|-4---4---4---4---4---4---4---4----||
||--7---7---7---7---7---7---7---7---|-6---6---6---6---6---6---6---6----||
||o-5---5---5---5---5---5---5---5---|-5---5---5---5---5---5---5---5---o||
||----------------------------------|----------------------------------||



 Chorus:
(Here's a more powerful strum. Continue the strumming pattern in the other bars.)
  Bm7                                 E9   A#m7(b5)  F#7
  +       +       +       +
|---------------------------------|-------|-------|---0---|
|-7-------7-----7-7-7-7---7---7-7-|---7---|---5---|---2---|
|-7-------7-----7-7-7-7---7---7-7-|---7---|---6---|---3---|
|-7-------7-----7-7-7-7---7---7-7-|---6---|---6---|---2---|
|-x-------------------------------|---7---|---x---|---x---|
|-7-------7-----7-7-7-7---7---7-7-|---0---|---6---|---2---|
  v       v     ^ v ^ v   v   v ^


   Bm7      E9     A#m7   F#7
|-------|-------|-------|-0-------0-----------------------|
|---7---|---7---|---6---|-2-------2-------3-------2-------|
|---7---|---7---|---6---|-3-------3-------3-------3-------|
|---7---|---6---|---6---|-2-------2-------2-------2-------|
|---x---|---7---|---x---|-x-------x-------x-------x-------|
|---7---|---0---|---6---|-2-------2-------2-------2-------|



 Bridge: similar to previous



 Outro:
  Bm7                               E9
|---------------------------------|---------------------------------|
|---------7---------------7-------|---------7---------------7-------|
|-----7-----7---------7-----7-----|-----7-----7---------7-----------|
|---7---------7-----7---------7---|---6---------6-----6-------------|
|---------------------------------|-7-------------7-----------------|
|-7-------------7-7---------------|-----------------0---------------|

  A#m7(b5)                          F#7             F#7(#5)           Bm7
|---------------------------------|---------------------------------|------:
|---------5---------------5-------|---------2-------3-------2-------|-7^---:
|-----6-----6---------6-----6-----|-----3-----3-------3-------3-----|-7^---:
|---6---------6-----6---------6---|---2---------2-------2-------2---|-7^---:
|---------------------------------|---------------------------------|------:
|-6-------------6-6---------------|-2---------------2-------2-------|-7^---:



 LYRICS
**********
Oh, you're searching for something I know
won't make you happy,
Oh, you're thirsting for something I know
won't make you happy,
Oh, you did it all again,
You broke another skein,
It's hard to believe this time,
It's hard to believe that my heart,
My heart's an open door,
You got all you came for,
So be real

Someone to love is bigger than your pride's worth
It's bigger than the pain you got, for all it hurts
It outruns all of the sadness
It's terrifying light to the darkness

And I'd do it all again
I'd do it all again
I'd do it all again
I'd do it all again

You try sometimes but it won't stop
You got my heart and my head's lost, oh 
I've been burning down these candles for love,
For love
So be real

Someone to love is bigger than your pride.

Oh,
You're searching for something I know won't
make you happy


+--------------------------------------------------------------------------+
Jon Sebastian Frederiksen - 19th /July /10
Just mail me at Maitinin@gmail.com with questions, comments and corrections!
Tap to rate this tab
 
# A B C D E F G H I J K L M N O P Q R S T U V W X Y Z