Song name
# A B C D E F G H I J K L M N O P Q R S T U V W X Y Z

Corinne Bailey Rae - Till It Happens To You tab

 This is my first tab, an easy one but there needs to be more Corinne Tabs up

===============
Tabbed by Paul M
p.mallory@gmail.com
===============

Intro:  C#m7 to G#
 |       |       |       |        |       |       |       |        
|--------------------------------|--------------------------4-----|
|----------------------5-------5-|--------------------------4-----|
|----------------4-----4h6-----4-|--------------------------5-----|
|----------6---------------------|----6---------------6-----------|
|----4---------------------------|----------------6---------------|
|--------------------------------|----------4---------------------|

Pre-Chorus Fill
 |       |       |       |        |       |       |       |        
|-------------------------------------|--------------------------------|
|-------------------------------------|--------------------------------|
|-------------------------------------|--------------------------------|
|-------------2----------------2------|--------------------------------|
|--------/4------2---------/4-----4--2|--------------------------------|
|--------------------or---------------|--------------------------------|

Chorus = 464544
         x46454

?? Please tell me what you think, thanks for looking!
Tap to rate this tab
 
# A B C D E F G H I J K L M N O P Q R S T U V W X Y Z