Guitaretab - guitar tabs
Song name
# A B C D E F G H I J K L M N O P Q R S T U V W X Y Z

Corrosion Of Conformity - Broken Man tab

Band- Corrosion Of Conformity
Song- Broken Man

TUNING: Tune 1 whole step down (D)

INTRO/VERSE:
d |-----------------------------------------------------------------|
A |-----------------------------------------------------------------|
F |-----------------------------------------------------------------|
C |------------------9----------------------------------------------|
G |-8--7--5--7--7--5---7--5--7-7--5--8--7--5--7-7-7--8-8--5-5-------|
D |-----------------------------------------------------------------|

CHORUS:
d |-----------------------------------------------------------------|
A |-----------------------------------------------------------------|
F |-----------------------------------------------------------------|
C |-----------------------------------------------------------------|
G |-------------------7---5---5h7-------------------9---7\5/7-------|
D |-5h7-7-7-7-75h7---------------5h7-7-7-7-75h7-------------------|
[ Tab from: http://www.guitaretab.com/c/corrosion-of-conformity/139229.html ]
BRIDGE: "...Standing tall, they look so small..."
d |-----------------------------------------------------------------|
A |-----------------------------------------------------------------|
F |----------------7--7--5--5--5-5-4-----------------9-9--7-7-5-4---|
C |-5/7-7-7-7-7-2--7--7--5--5--5-5-4--5/7-7-7-7-7-2--9-9--7-7-5-4-5-|
G |-5/7-7-7-7-7-2--5--5--3--3--3-3-2--5/7-7-7-7-7-2--7-7--5-5-3-2-5-|
D |-3/5-5-5-5-5-0---------------------3/5-5-5-5-5-0---------------3-|

BEFORE 3rd VERSE:
d |-----------------------------------------------------------------|
A |-----------------------------------------------------------------|
F |-----------------------------------------------------------------|
C |-7-7---5--7-7---5--7-7---5-7-10-7-7---3--7-7---5--7-7---5-7-12---|
G |-7-7---5--7-7---5--7-7---5-7-10-7-7---5--7-7---5--7-7---5-7-12---|
D |-5-5---3--5-5---3--5-5---3-5-8--5-5---3--5-5---3--5-5---3-5-10---| Repeat

d |-----------------------------------------------------------------|
A |-----------------------------------------------------------------|
F |-----------------------------------------------------------------|
C |-7-7---5--7-7---5--7-7---5-7-10-7-7---5--7-2-5-------------------|
G |-7-7---5--7-7---5--7-7---5-7-10-7-7---5--7-2-5-------------------|
D |-5-5---3--5-5---3--5-5---3-5-8--5-5---3--5-0-3-------------------|

Any questions, comments, or ratings are welcomed. This one was a pain
in the ass to figure out, Im thinking it could also be played in drop
D tuning. Dabble a bit and let me know if it works out.
Related for Broken Man tab