Song name
# A B C D E F G H I J K L M N O P Q R S T U V W X Y Z

Corrs - Only When I Sleep tab

Song:Only when i sleep
Artist:The Corrs
Tabber:the Eros™


This is only the guitar intro riff
|-------------------------------------------------|
|--------3--5--5/7--------------------------------|
|--4--6-------------------------------------------|
|-------------------------------------------------|x2
|-------------------------------------------------|
|-------------------------------------------------|

|---7--5------------------------------------------|
|---------7---5-------5---7-------0--3--5--7------|
|-----------------7-----------4---------------2---|
|-------------------------------------------------|
|-------------------------------------------------|
|-------------------------------------------------|

^_^ this is my first time to tab a song 
i think it is right...
by: don
Tap to rate this tab
# A B C D E F G H I J K L M N O P Q R S T U V W X Y Z