Cory Chisel And The Wandering Sons - On My Side tab

Song: On my side
Artist: Cory Chisel and the Wandering Sons
Tabs written by Bashar AlAli

Hello world, this is my first tab. 

Song is in key of C# major...
(The C chord im using is actually called C/G)

Capo: 1st Fret  <----------

A4 is:     Am/C is:
0              0
0              1
2              2
2              2
0              3
0              0


INTRO:

   C
|--------0-------|
|------------1---|
|------0-------0-|
|----------------|     x8 
|--3-------------|
|--3-------------| 


 VERSE 1:
   C                C               Em		     Em
|--------0-------|--------0-------|--------0-------|--------0-------|
|------------1---|------------1---|------------0---|------------0---|
|------0-------0-|------0-------0-|------0-------0-|------0-------0-|
|----------------|----------------|--2-------------|--2-------------|
|--3-------------|--3-------------|--2-------------|--2-------------|
|--3-------------|--3-------------|--0-------------|--0-------------|
   How................ Can it be?.............................We are

   F		    C 		     C                C                C
|--------1-------|--------0-------|--------0-------|--------0-------|--------0-------|
|------------1---|------------1---|------------1---|------------1---|------------1---|
|------2-------2-|------0-------0-|------0-------0-|------0-------0-|------0-------0-|
|--3-------------|----------------|----------------|----------------|----------------|
|--3-------------|--3-------------|--3-------------|--3-------------|--3-------------|
|--1-------------|--3-------------|--3-------------|--3-------------|--3-------------|
  Losing       our-selves.........................................................and

   C                C               Em		     Em
|--------0-------|--------0-------|--------0-------|--------0-------|
|------------1---|------------1---|------------0---|------------0---|
|------0-------0-|------0-------0-|------0-------0-|------0-------0-|
|----------------|----------------|--2-------------|--2-------------|
|--3-------------|--3-------------|--2-------------|--2-------------|
|--3-------------|--3-------------|--0-------------|--0-------------|
   Why................Can I not....sleep.......................under-

   F		    C 		     G               Am               Am              
|--------1-------|--0-------------|----------------|--------0-------|--------0-------|
|------------1---|--1-------------|--0-------------|------------1---|------------1---|
|------2-------2-|--0-------------|--0-------------|------2-------2-|------2-------2-|
|--3-------------|--2-------------|--0-------------|--2-------------|--2-------------|
|--3-------------|--3-------------|--2-------------|--0-------------|--0-------------|
|--1-------------|--3-------------|--3-------------|----------------|----------------|
  -neath...my own...Hell when the..daylight  comes...down


Chorus: (same picking pattern as verse, or your own?) 

C	  G	  Am	  Am
Oh, We're drying away

C         G             Am             Em               F     G     C      C  
All I can say, When the band begins to play. There's no angel on my side.      and i will

F    G          A4   A4   Am    Am
Need you on my side                    Can you   

F          G         C
Hear, them caaalling me.       and the  
  
F                 G         Am/C      E7     F                      C            G          G
Rusted Dark, of a thousand, yeeeeears goooes by. And they never ask whyyyyyyyyyyyyyyyyyyyyyyyyyy

SOLOO TIIIIIME: 

chords for solo, are exactly the chords for the whole verse.
(ignore capo for solo tabs)

|----------------------------------8--8/11----------------------|
|-----------9\8--8----------9h11-----------------------9-7/9----|
|-/10----------------------------------------8/10--------8/10---|
|---------------------------------------------------------------|
|---------------------------------------------------------------|
|---------------------------------------------------------------|

|----------------------------------8--8/11------------------------------|
|-----------9\8--8----------9h11---9------------------------------------|
|--10----8------------------10-----------------10--8--10p8---6----10-8-6|
|-----------------------------------------------------------------------|
|------------------------------------------------------------0----------|
|-----------------------------------------------------------------------|


VERSE 2: SAME CHORDS:

C                Em                   F                C           C       
Take what you conceal, and breathe it out through your bones            But

C           Em          F          C         G            Am       Am 
speak to my ear, in the softest of tones, it cant set me down



CHORUS AGAIN

OUTRO:

           F        G     C
And I will need you on my side
Tap to rate this tab
 
# A B C D E F G H I J K L M N O P Q R S T U V W X Y Z