Song name
# A B C D E F G H I J K L M N O P Q R S T U V W X Y Z

Cosmo Jarvis - Problems tab

======================================================
              Cosmo Jarvis - Problems
======================================================
Standard Tuning

x     - mute
~     - let ring
*     - palm mute
(#)   - optional
!     - Forte
x2/x4 - measure repeats


Intro                                                                           x2
-9---------9---------------------------9---------9-------------------------------|
---10---10---10---10--7---8---9---10-----10---10---10---10--10----10----9---9----|
------9---------9-------7---7---7----7------9---------9--------11----11---9---9--|
---------------------------------------------------------------------------------|
---------------------------------------------------------------------------------|
---------------------------------------------------------------------------------|
||
|| End Intro
-9---------9---------------------------------------------------------------------|
---10---10---10---10---9---9---9---9---7---7---7---10---7---7---7---7------------|
------11--------11-------9---9---9---9---8---8---8----8---7---7---7---7----------|
---------------------------------------------------------------------------------|
---------------------------------------------------------------------------------|
---------------------------------------------------------------------------------|

Verse 1                               x4 Then This At the End
-5~-------------5~---5~~------5~~------|-0~~-------------------------------------|
-5~---9~---7~---5~---5~~------5~~------|-0~~-------------------------------------|
-6~---9~---7~---6~---6~~------6~~------|-1~~-------------------------------------|
-7~---9~---7~---7~---7~~------7~~------|-2~~-------------------------------------|
-7~---7~---5~---7~---7~~------7~~------|-2~~-------------------------------------|
-5~--(0)--------5~---5~~------5~~------|-0~~-------------------------------------|


Chorus 1 Lead                                                                  x2
-9---------9---------------------------9---------9-------------------------------|
---10---10---10---10--7---8---9---10-----10---10---10---10--10----10----9---9----|
------9---------9-------7---7---7----7------9---------9--------11----11---9---9--|
---------------------------------------------------------------------------------|
---------------------------------------------------------------------------------|
---------------------------------------------------------------------------------|
||
-9---------9----------------------------------10----------10---------------------|
---10---10---10---10--12----12----12----12-------10----10----10----10------------|
------11--------11-------13----13----11----11-------11----------11---------------|
------------------------^------^---^------^--------------------------------------|
----------------------play both pairs twice--------------------------------------|
---------------------------------------------------------------------------------|
Chorus Rhythm is done by Bass & Piano for this chorus


Verse 2                              x4 Then This At the End
-5~-------------5~---5~~------5~~------|-----------------------------------------|
-5~---9~---7~---5~---5~~------5~~------|-9~~-------------------------------------|
-6~---9~---7~---6~---6~~------6~~------|-9~~-------------------------------------|
-7~---9~---7~---7~---7~~------7~~------|-9~~-----(mute on 5th fret)--------------|
-7~---7~---5~---7~---7~~------7~~------|-7~~-------x-x--x-x--x-x-----------------|
-5~--(0)--------5~---5~~------5~~------|-----------x-x--x-x--x-x-----------------|


Chorus 2 Lead                                                                   x2
-9---------9---------------------------9---------9-------------------------------|
---10---10---10---10--7---8---9---10-----10---10---10---10--10----10----9---9----|
------9---------9-------7---7---7----7------9---------9--------11----11---9---9--|
---------------------------------------------------------------------------------|
---------------------------------------------------------------------------------|
---------------------------------------------------------------------------------|
||
-9---------9----------------------------------10----------10---------------------|
---10---10---10---10--12----12----12----12-------10----10----10----10------------|
------11--------11-------13----13----11----11-------11----------11---------------|
------------------------^------^---^------^--------------------------------------|
----------------------play both pairs twice--------------------------------------|
---------------------------------------------------------------------------------|
Chorus 2 Rhythm
----------------------------------------------------------------------------5~---|
----------------------------------------------------------------------------5~---|
-------7~-------------------7~------------------------4~---7~7~7~7~7~7~7~7--6~---|
--7~---x----7~---4~-2~-4~---x----7~---4~-2~-4~---2~---x----x-x-x-x-x-x-x-x--7~---|
--x----5~---x----x--x--x----5~---x----x--x--x----x----2~---5~5~5~5~5~5~5~5~-7~---|
--5~--------5~---2~-0~-2~--------5~---2~-0~-2~---0~-------------------------5~---|


Bridge Is the same length as the chorus and the same chords just in a different way...
Piano stops and guitar comes in on this E ======^

Cont. from the E
---------------------------------------------------------------------------------|
----------------------------------------------------F----------------------------|
------------------4-4-4-4-4-4-4-4--7!7!----7!7!-----U----------------------------|
--2-2-2-2-2-2-2-2-4-4-4-4-4-4-4-4--7!7!-xx-7!7!-xx--C----------------------------|
--2-2-2-2-2-2-2-2-2-2-2-2-2-2-2-2--5!5!-xx-5!5!-xx--K-.-.-.----------------------|
--0-0-0-0-0-0-0-0-----------------------xx------xx-------------------------------|
        * * * * * * * * * * * * *

Chorus 3 Lead                                                                   x2
-9---------9---------------------------9---------9-------------------------------|
---10---10---10---10--7---8---9---10-----10---10---10---10--10----10----9---9----|
------9---------9-------7---7---7----7------9---------9--------11----11---9---9--|
---------------------------------------------------------------------------------|
---------------------------------------------------------------------------------|
---------------------------------------------------------------------------------|
||
-9---------9----------------------------------------------------------10---------|
---10---10---10-------12----12----12----------12----12----12----12-------10------|
------11-----------------13----13----13----------11----12----11----11-------11~~-|
---------------------------------------------------------------------------------|
---------------------------------------------------------------------------------|
---------------------------------------------------------------------------------|
Chorus 3 Rhythm
-----------------------------------------------r----r----------------------------|
-----------------------------------------------e----e------------------2~~//-----|
-------7~-------------------7~-----------------s----s-4~---7~~~~6~-4~--2~~//-----|
--7~---x----7~---4~-2~-4~---x----7~---4~-2~-4~-t-2~-t-x----x----x--x---x---------|
--x----5~---x----x--x--x----5~---x----x--x--x----x----2~---5~~~-4~-2~--0~~-------|
--5~--------5~---2~-0~-2~--------5~---2~-0~-2~---0~------------------------------|

Now enjoy some piano and please rate :P
Tap to rate this tab
 
# A B C D E F G H I J K L M N O P Q R S T U V W X Y Z