Song name
# A B C D E F G H I J K L M N O P Q R S T U V W X Y Z

Cot Death - Freak tab

Cot Death - Freak.
Tabbed by slipknotheaven@angelfire.com.
  
ARTIST: Cot Death
SONG: 
MUSIC BY: Jason Hawker

TUNING: Standard (E A D G B E)

KEY:
~ = Let Ring 
x = Palm Mute

VERSE:
G ----------------------------------
D --8~-------6~-------4~------------
A --8~--8----6~--6----4~--4--4--4---
E --6~----6--4~----4--2~---2--2--2--

CHORUS:

Riff A:
G -------------------------------------------------
D --8-8--x-x-x-x--6-6--x-x--4-4--4-4--4-4-4-4-4-4--
A --8-8--x-x-x-x--6-6--x-x--4-4--4-4--4-4-4-4-4-4--
E --6-6--x-x-x-x--4-4--x-x--2-2--2-2--2-2-2-2-2-2--

Riff B:
G -----------------------------------------
D --8-8--x-x-x-x--6-6--x-x--4-4--4-4--4-4--
A --8-8--x-x-x-x--6-6--x-x--4-4--4-4--4-4--
E --6-6--x-x-x-x--4-4--x-x--2-2--2-2--2-2--

G ---------------------------
D 4-4-4-4--3~---3-3--3-3--3--
A 4-4-4-4--3~---3-3--3-3--3--
E 2-2-2-2--1~---1-1--1-1--1--


 
:: Ultimate Guitar Archive :: 
http://www.ultimate-guitar.com 

Tap to rate this tab
# A B C D E F G H I J K L M N O P Q R S T U V W X Y Z