Guitaretab - guitar tabs
Song name
# A B C D E F G H I J K L M N O P Q R S T U V W X Y Z

Count Zero - Artillery tab

B|--------------------------------|                       ARTILLERY
G|-----3-----3--------3------3----|
G|----0----0--------0------0------|
D|--4----4--------4------4--------| 
A|--------------------------------|
D|--------------------------------|


B|-------------------------------------------------| 
G|-----3-----3--------3------3---------------------|
G|----0----0--------0------0-----------------------|   hold & fade
D|--2----2--------2------2-------------------------| 
A|-------------------------------------------------|
D|-------------------------------------------------|



B|-------------------------------------------------|           
G|-------------------------------------------------|
D|-12--11--12--11-12-11----------------------------| 
A|-----------------------12--12--12--1214---------|
D|-----------------------------------------15\-----|
                                              \


B|------------------------------------------------------------------| 
G|------------------------------------------------------------------|
G|---------------2-------------------------------2------------------|
D|---2-----------2---2---------------2-----------2---2--------------| 
A|---2-----------0---2---------------2-----------0---2--------------|
D|---0-0-0-0-0-0-0-0-0-0-0-0-0-0-0-0-0-0-0-0-0-0-0-0-0-0-0-0-0-0-0-0|

[ Tab from: http://www.guitaretab.com/c/count-zero/87573.html ]
B|------------------------------------------------------| 
G|------------------------------------------------------|
G|---------------2-------------------------------2------|
D|---2-----------2---2---------------2-----------2---2--| hold last note and fade
A|---2-----------0---2---------------2-----------0---2--|   (open for small solos)
D|---0-0-0-0-0-0-0-0-0-0-0-0-0-0-0-0-0-0-0-0-0-0-0-0-0--|

( small solos go in between the beat here )

B|--------------------------------| 
G|-----3-----3--------3------3----|
G|----0----0--------0------0------|
D|--4----4--------4------4--------| 
A|--------------------------------|
D|--------------------------------|


B|-------------------------------------3-----------| 
G|-----3-----3--------3------3---------0-----------|
G|----0----0--------0------0-----------0-----------|   hold & fade
D|--2----2--------2------2-------------0-----------| 
A|-------------------------------------2-----------|
D|-------------------------------------3-----------|


B|----------------------------------------------------------| 
G|----------------------------------------------------------|
G|---------------2------------------------------------------| mute
D|---2-----------2---2---------------2----------------------| 
A|---2-----------0---2---------------2-------222------------|
D|---0-0-0-0-0-0-0-0-0-0-0-0-0-0-0-0-0-------000------------|
Related for Artillery tab