Song name
# A B C D E F G H I J K L M N O P Q R S T U V W X Y Z

Counting Crows - Walkaways chords

Highlighted       Show chord diagrams
This is a really simple and short song but nice to play. This isn't perfect
 but pretty close and if nothing else, gives you a half accurate idea of how
 to play. Its great to embellish a bit of your own rhythm with the strumming
 but I have included up and down strokes to get you started. Enjoy

KEY
h=hammer one
p=Pull off
d=downward strum
u=upward strum



INTRO

          G                          Dsus        
 
    d  d  u  u  d             d  u  u  d
E|--3--3--3--3--3-----------|-3--3--3--3-----------|--
B|--3--3--3--3--3-----------|-3--3--3--3-----------|--
G|--0--0--0--0--0-------0h2-|-2--2--2--2-------0---|--
D|--0--0--0--0--0-----0-----|-0--------0-----0---2-|--
A|--2--2--------2--0h2------|-------------0h2------|--
E|--3--3--------3-----------|----------------------|--


         A7sus4                            C

    d  u  u  d           d     d  d  d  u  u  d  d  u  d 
E|--3--3--3--3-----------3--|--3--3--3--3--3--3--3--3--3--|--
B|--3--3--3--3-----------1--|--1--1--1--1--1--1--0--1--0--|--
G|--0--0--0--0--------0--0--|--0--0--0--0--0--0--0--0--0--|--
D|--2--------2------0----2--|--2--2--2--2--2--2--2--2--2--|--
A|--------------0h2------3--|--3--3--3--3--3--3--3--3--3--|--
E|--------------------------|-----------------------------|--

VERSE

The verse uses the same chords as the intro in the same order but no longer
 has the connecting riff. The strumming pattern is very similar but replaces
 the riff with a few extra strums, its pretty easy to figure it out. 

G            Dsus        A7sus4   
Gotta rush away, she said 

        C                 G leading to next line   
Been to Boston before,

G          Dsus               A7sus4
And any way, this change I've been feeling,

             C               G leading to next line  
Doesn't make the rain fall

G    Dsus          A7sus4
No big, differences these days, 
                 C
Just the same old walkaways 

G    Dsus           A7sus
  Someday, I'm gona stay,
      C             
 but not today.

Hope you enjoy and rate this as you see fit. Cheers.
Tap to rate this tab
# A B C D E F G H I J K L M N O P Q R S T U V W X Y Z