Song name
# A B C D E F G H I J K L M N O P Q R S T U V W X Y Z

Counting Crows - Colorblind tab

Help us improve GuitareTab! Take a short survey!
This song was meant to be on piano as it is obviously is in the song...
BUT I decided to experiment with the guitar... cause I don't
play piano. So... here it is... mind you, this is my second song
that I've ever tabbed so it's not picture perfect :oP

Standard tuning

e|---------------------------5--------------------------------|
B|-----------8-------------------------------6-------6--------|
G|-----5---5---5---5---5---5---5---5---5---5---5---5---5------|
D|--7----7-------7---7---7-------7---7---7-------7-------7----|
A|--0----------------x---------------8-----------8------------|
E|-------------------6----------------------------------------|

e|------------|
B|----6-------|
G|--5---5-----| Repeat over and over again
D|--------7---|
A|------------|
E|------------|

Essentially that's the whole song :oP Enjoy!

(Added by Mandrillen)
LYRICS:

Counting Crows - Colorblind
words by:Adam F. Duritz
music by:Adam F. Duritz Duritz and Charles Gillingham


I am colorblind
Coffee black and egg white
Pull me out from inside
I am ready
I am taffy stuck and tongue tied
Stutter shook and uptight
Pull me out from inside
I am ready
I am fine

I am covered in skin
No one gets to come in
Pull me out from inside
I am folded and unfolded and unfolding
I am colorblind
Coffee black and egg white
Pull me out from inside
I am ready
I am fine

Related for Colorblind tab