Song name
# A B C D E F G H I J K L M N O P Q R S T U V W X Y Z

Counting Crows - Holiday In Spain tab

This is our first tab. we hope you'll enjoy it!


Version 1
e|-2-5-2-5-2-5-2-0--0-|
b|-3-3-3-3-3-3-3--3---|
g|-2-2-2-2-2-2-2------| Etc.
d|--------------------|
a|--------------------|
e|--------------------|

Version 2

e|-2-5--0--2-5--0--2-5--0-2-0---0-2-2-5--0-|
b|-3-5-0---3-5-0---3-5-0------3-----3-5-0--|
g|-2-------2-------2----------------2------| Etc.
d|-0-------0-------0----------------0------|
a|-----------------------------------------|
e|-----------------------------------------|

By Jeffrey and Frank. Good Luck!
Tap to rate this tab
# A B C D E F G H I J K L M N O P Q R S T U V W X Y Z