Song name
# A B C D E F G H I J K L M N O P Q R S T U V W X Y Z

Counting Crows - Round Here tab

COUNTING CROWS
ROUND HERE
LIVE FROM THE 10 SPOT SOLO

                                  tabbed by: Martijn Laman
                                     mlaman@hotmail.com


  Riffs after the "sleeping children... out of the lightning" part


  wah wah riff
e:---------------------------------------------------------------------------|
B:---------------------------------------------------------------------------|
G:---------------------------------------------------------------------------|
D:11-12--14vvvv--14--16--17--16--17--19----14--16--17--16--17--19------------|
A:---------------------------------------------------------------------------|
E:---------------------------------------------------------------------------|

e:----------------------------|
B:----------------------------|
G:-------17-16----------------|
D:16-17---------17--12--14--12|
A:----------------------------|
E:----------------------------|




  none wah wah riff:
e:---3--------------------------------------------------------5-----------5--|
B:5-----5--/7--7--8--5--8--5--8--5--7----------------5--8--5-----5--8--5-----|
G:-------------------------------------7-7--5--4-----------------------------|
D:------------------------------------------------5--------------------------|
A:---------------------------------------------------------------------------|
E:---------------------------------------------------------------------------|

e:---------5-----7-----8-----[8/]-10-----10----------------------------------|
B:5--8--5-----5-----5-----5-----------8------8--[8/12]-12--------------------|
G:---------------------------------------------------------------------------|
D:---------------------------------------------------------------------------|
A:---------------------------------------------------------------------------|
E:---------------------------------------------------------------------------|



listen to the cd for the right timing and rhythm

enjoy!

Tap to rate this tab
# A B C D E F G H I J K L M N O P Q R S T U V W X Y Z