Song name
# A B C D E F G H I J K L M N O P Q R S T U V W X Y Z

Counting Crows - Time And Time Again tab

-------------------------------------------------------------------------------
			     Time and Time Again- Counting Crows
-------------------------------------------------------------------------------
Tabbed by: Chris Tetreault
Email: tetreaultcrt@gmail.com

Tuning: Standard
Intro and Verse (Listen to the song to get the rhythm)
e|-------------------------------------------------------------------------|
B|-------------------------------------------------------------------------|
G|-------------------------------------------------------------------------|
D|-------------------------------------------------------------------------|
A|-----------3---3-3-3-3---3-3-3-3-3---------------------------------------|
E|-------3h5----5-5-5-5-5-3-3-3-3-3-3--------------------------------------|

Random thing played in the verse (listen for it)
e|-------------------------------------------------------------------------|
B|-------------------------------------------------------------------------|
G|--------5----------------------------------------------------------------|
D|----5h7------------------------------------------------------------------|
A|-------------------------------------------------------------------------|
E|-------------------------------------------------------------------------|

Chorus (Figure out rhythm yourself)
    Dm     C    Am   Dm   C   Am    Dm   C    F
e|---1-----0-----0----1---0----0----1----0----1----------------------------|
B|---3-----1-----1----3---1----1----3----1----1----------------------------|
G|---2-----0-----2----2---0----2----2----0----2----------------------------|
D|---0-----2-----2----0---2----2----0----2----3----------------------------|
A|---------3-----0--------3----0---------3----3----------------------------|
E|-------------------------------------------------------------------------|

Solo
e|-------------------------------------------10-----10---8-----10--10-10h12|
B|-----10b-8~-------------------------10------10-10--10--10-10--10---------|
G|-------------7-9-10p9-9h10-7--7h9p7--------5h7---------------------------|
D-------------------------------------777-5h7----5-------------------------|
A--------------------------------------------------------------------------|
E|-------------------------------------------------------------------------|

e|10--10--8---10--10-10h12--10--10-10h12-/8-8-8--8-10--8-8-8--5------------|
B|-10--10-10--10--10-10-10--10--10-10-10-/8-8-8--8-8---8-8-8--6------------|
G|-------------------------------------------------------------------------|
D|-------------------------------------------------------------------------|
A|-------------------------------------------------------------------------|
E|-------------------------------------------------------------------------|
Don’t have the bridge yet, the version in the other tab doesn’t seem right, so email me 
you figure it out…

| /  slide up
| \  slide down
| h  hammer-on
| p  pull-off
| ~  vibrato
| +  harmonic
| x  Mute note
Tap to rate this tab
# A B C D E F G H I J K L M N O P Q R S T U V W X Y Z