Song name
# A B C D E F G H I J K L M N O P Q R S T U V W X Y Z

Country - Oh Suzana tab

e|---------0-0--2-0--------------------------------------------------------|
B|-------2----------2-------------2-2--------------------------------------|
G|---2-4--------------2---------4-----4-2-4--------------------------------|
D|-------------------------------------------------------------------------|
A|-------------------------------------------------------------------------|
E|-------------------------------------------------------------------------|

e|---------0-0--2-0--------------------------------------------------------|
B|-------2---------2--------------2-2--------------------------------------|
G|---2-4--------------2---------4-----4-4-2--------------------------------|
D|-------------------------------------------------------------------------|
A|-------------------------------------------------------------------------|
E|-------------------------------------------------------------------------|

e|---------0-0--2-0--------------------------------------------------------|
B|-------2----------2-------------2-2--------------------------------------|
G|---2-4--------------2---------4-----4-2-4--------------------------------|
D|-------------------------------------------------------------------------|
A|-------------------------------------------------------------------------|
E|-------------------------------------------------------------------------|

e|---------0-0--2-0--------------------------------------------------------|
B|-------2---------2--------------2-2--------------------------------------|
G|---2-4--------------2---------4-----4-4-2--------------------------------|
D|-------------------------------------------------------------------------|
A|-------------------------------------------------------------------------|
E|-------------------------------------------------------------------------|

e|-------2-2--2-0-0-------------------0-0--2-0-----------------------------|
B|---3-3------------2----------0-2------------2-----2-2--------------------|
G|--------------------2-4----2------------------2-4-----4-4-2--------------|
D|-------------------------------------------------------------------------|
A|-------------------------------------------------------------------------|
E|-------------------------------------------------------------------------|
Tap to rate this tab
 
# A B C D E F G H I J K L M N O P Q R S T U V W X Y Z