Song name
# A B C D E F G H I J K L M N O P Q R S T U V W X Y Z

Courage My Love - Anchors Make Good Shoes If You Have Issues tab

LISTEN TO THE SONG!!! IT WILL BE A WHOLE LOT EASIER :)
http://www.youtube.com/watch?v=u1yQY9Xb0oY

INTRO (part 1)

Electric 1
(clean picking on the CFA strings)
D|---|
A|-6-|
F|-8-|
C|-8-|
G|-6-|
C|---|

INTRO (part 2)

D|--------------------------xxxx-----------------------------------|
A|--------------------------xxxx-----------------------------------|
F|-10/12121212-13-12-10-8-7-xxxx-7/8\7/8--12121212-13-12-15-7777-5-|
C|-x--x-x-x-x--x--x--x--x-x-xxxx-x-x-x-x--x-x-x-x--x--x--x--xxxx-x-|
G|-8-/10101010-11-10-8--6-5-xxxx-5/6\5/6--10101010-11-10-13-5555-3-|
C|--------------------------xxxx-----------------------------------|

Electric 2

D|----------------------------------------------------|
A|----------------------------------------------------|
F|----------------------------------------------------|
C|-555555555555-11111111--5-5xxxx-5-5-11111111-8888-6-|
G|-555555555555-11111111--5-5xxxx-5-5-11111111-8888-6-|
C|-555555555555-11111111--5-5xxxx-5-5-11111111-8888-6-|

VERSE

Electric 1+2
(listen to song for strum pattern)
D|-----------------------------|
A|-----------------------------|
F|-----------------------------|
C|-1-5-1-5-6----------10-1-5-8-|
G|-1-5-1-5-6-6-5------10-1-5-8-|
C|-1-5-1-5-6-----8-10-10-1-5-8-|

CHORUS

Electric 2

D|----------|
A|----------|
F|----------|
C|-1-5-10-8-|
G|-1-5-10-8-|
C|-1-5-10-8-|

Electric 1

(the lead is really hard to hear, help would be really nice :P)
(it goes around the lines of...)

D|-------------|
A|-16r15r13----|
F|----------15-|
C|-------------|
G|-------------|
C|-------------|

INTRO (part 2)

VERSE (add INTRO part 2)

CHORUS

BRIDGE

Electric 2

D|------|
A|------|
F|------|
C|-6--1-|
G|-6--1-|
C|-6--1-|

Electric 1
 (repeatedly)
D|--------------------------------|
A|-----------------------------16-|
F|------------15------------15----|
C|-1312131213----1312131213-------|
G|--------------------------------|
C|--------------------------------|

CHORUS
Tap to rate this tab
# A B C D E F G H I J K L M N O P Q R S T U V W X Y Z