Song name
# A B C D E F G H I J K L M N O P Q R S T U V W X Y Z

Coverdale Page - Shake My Tree tab

SHAKE MY TREE
Coverdale Page
"Coverdale/Page"

MAIN RIFF:
|------------------------------------------------------------------------------|
|-5-0-0-3-0-0-5-0-0-3-0-0------5-0-0-3-0-0-5-0-0-3-0-0-------------0-3-0-3-0-0-|
|-------------------------2-1--------------------------2-1-----1-2-------------|
|-----------------------------------------------------------2------------------|
|------------------------------------------------------------------------------|
|------------------------------------------------------------------------------|

---------------------||
-------0-3-0-3-0-0---||
---1-2---------------|| 2 X
-2-------------------||
---------------------||
---------------------||

|------------------------|------------------------------|
|---------3p0-(0)-3p0-0--|-5p0-0-3p0-0-5p0-0-3p0-0------|
|-1-2-2s4----------------|-------------------------2p1--|
|------------------------|------------------------------|
|------------------------|------------------------------|
|------------------------|------------------------------|

|---------------------------------------------------------------|
|-5---3---5---3-------5---3---5---3-------5---3---5---3---------|
|----------------2-1-----------------2-1-----------------2-1----|
|---------------------------------------------------------------|
|---------------------------------------------------------------|
|---------------------------------------------------------------|

|-------------------------------------------------------------|
|-5---3---5---------0-3-0-3-0-0--------0-3-0-3-0-0------------|
|---------------1-2----------------1-2------------------------|
|-------------2------------------2----------------------------|
|-------------------------------------------------------------|
|-------------------------------------------------------------|


 4/4
  H    H      H    H      +E  E   Q     H
|-----------|-----------|-----------------------|
|-4----4----|-4----4----|-(4)-------------------|
|-4----4----|-4----4----|-(4)-------------------|
|-4----4----|-4----4----|-(4)-------------------|
|-2----0----|-----------|-----------------------|
|-----------|-3----2----|-(2)-------------------|
|
| H    H      H    H       E  S E   S E S E. Q
|-----------|-----------|-----------------------|
|-4---------|-----------|-----------------------|
|-4----4----|-4----4----|-----------------------|
|-4----4----|-4----4----|-----------------------|
|-2----0----|------2----|-----2-----2---2-------|
|-----------|-3---------|-----0-----0---0-------|



  Gtr III
  E S S S E. S E. Q    E S E S E S E. Q    E S S S E. +H
|--------------------|-------------------|-------------------||
|--------------------|-------------------|---------3--(3)----||
|--------------------|-------------------|---2-2-2-0--(0)----||
|--------------------|-------------------|---2-2-2-0--(0)----||
|---2-2-2-2--2-------|---2---2---2-------|---0-0-0-----------||
|---0-0-0-0--0-------|---0---0---0-------|---------3--(3)----||


 Verse 3

|---------------------|-----------------------|
|-(3)-----------------|-----------------------|
|-(0)-----------------|-----------------------|
|-(0)-----------------|---2-2-2---------------|
|---------------------|---0-0-0---------------|
|-(3)-0---0---0-------|---------3b3.5-0-------|

|-------------------|------------------------|
|-------------------|------------------------|
|-------------------|------------------------|
|-------------------|---2-2-2----------------|
|---2---2---2-------|---0-0-0----------------|
|---0---0---0-------|---------3b3.5-0--------|

|-------------------|-----------------------|
|-------------------|-----------------------|
|-------------------|-----------------------|
|-------------------|---2-2-2---------------|
|-------------------|---0-0-0---------------|
|---0---0---0-------|---------3b3.5-0-------|

|-------------------|------------------------|
|-------------------|------------------------|
|-------------------|-------------------1-2--|
|-------------------|---2-2-2---------2------|
|---2---2---2-------|---0-0-0----------------|
|---0---0---0-------|---------3b3.5-0--------|
                      E S S S E.    H

                                                   G
  a E S S S S S S E E E E   a  E  S S S S S S H
|-------------------------|------------------------|
|-----3p0---3p0---0-------|-------3p0---3p0---0----|
|-2s4-----4-----4-----1-2-|-2s=4------4-----4------|
|-------------------2-----|------------------------|
|-------------------------|------------------------|
|---0-----0-------0-0-0---|---(0)------------------|
    Q     Q       E E Q       +W

 tr III
  S E S E S S H      E S S S E.    S E. Q
|------------------|-------------------------|
|------------------|-------------------------|
|------------------|-------------------------|
|------------------|---2-2-2-----------------|
|------------------|---0-0-0-----------------|
|-0---0---0--------|---------3b3.5-0---------|


  E S E S E S E. Q    E S S S E.    S E. Q
|-------------------|-----------------------|
|-------------------|-----------------------|
|-------------------|-----------------------|
|-------------------|---2-2-2---------------|
|-------------------|---0-0-0---------------|
|---0---0---0-------|---------3b3.5-0-------|

  E S E S E S E. Q    E S S S E.    S E. Q
|-------------------|------------------------|
|-------------------|------------------------|
|-------------------|------------------------|
|-------------------|---2-2-2----------------|
|-------------------|---0-0-0----------------|
|---0---0---0-------|---------3b3.5-0--------|


                                            $
  E S E S E S E. Q    E S S S E.    S E. Q
|-------------------|-----------------------||
|-------------------|-----------------------||
|-------------------|-----------------------||
|-------------------|---2-2-2---------------||
|-------------------|---0-0-0---------------||
|---0---0---0-------|---------3b3.5-0-------||


 Bridge
  E S S S S S S S E. Q    E S S S S S S E S S Q
|-----------------------|---------------------1---|
|-----------------------|---------------------1---|
|-----------------------|---------------------2---|
|---7p0---5p0---4-------|---7p0---5p0---4-----3---|
|-0-----0-----0---------|-0-----0-----0-----------|
|-----------------------|-----------------1-1-----|


  Gtrs I, II, V
  W                       H             E E   E   E
|-----------------------|-----------------------------|
|-----------------------|-----------------------------|
|-----------------------|---------------------1---2---|
|-----------------------|-----------------2-----------|
|-----------------------|-----------------------------|
|-----------------------|-----------------0---4---5---|
|                         H             E E   E   E
|
| Gtr III
| E S S S S S S S E. Q    E S S S S S S E S S S S S S
|-----------------------|-----------------------------|
|-----------------------|-----------------------------|
|-----------------------|-----------------------------|
|---7p0---5p0---4-------|---7p0---5p0---4-------------|
|-0-----0-----0---------|-0-----0-----0---------2-4h5-|
|-----------------------|-----------------0-4h5-------|
Tap to rate this tab
# A B C D E F G H I J K L M N O P Q R S T U V W X Y Z