Song name
# A B C D E F G H I J K L M N O P Q R S T U V W X Y Z

Cowboy Mouth - Jenny Says tab

Verse #1
e-------------------|
B-------------------|
G-------------------|
D---------------4---|
A------4--4--2------|
E---2---------------|


Bridge #1
e----------------------------------------------------|
B----------------------------------------------------|
G----------------------------------------------------|
D---4--7--9--12------4--7--9--11-----4--7--9--12-----|
A---4--7--9--12------4--7--9--11-----4--7--9--12-----|
E---2--5--7--10------2--5--7--9------2--5--7--10-----|


e-----------------------|
B-----------------------|
G-----------------------|
D--7-7-7-7-11-11-11-11--|
A--7-7-7-7-11-11-11-11--|
E--5-5-5-5-9--9--9--9---|


Chorus #1
e---------------------------------------------|
B---------------------------------------------|
G---------------------------------------------|
D--4--9--4--9--4--9--4--9--11--12--11--14--4--|
A--4--9--4--9--4--9--4--9--11--12--11--14--4--|
E--2--7--2--7--2--7--2--7--9---10--9---12--2--|

Verse #2
e-------------------|
B-------------------|
G-------------------|
D---------------4---|
A------4--4--2------|
E---2---------------|


Bridge #2
e----------------------------------------------------|
B----------------------------------------------------|
G----------------------------------------------------|
D---4--7--9--12------4--7--9--11-----4--7--9--12-----|
A---4--7--9--12------4--7--9--11-----4--7--9--12-----|
E---2--5--7--10------2--5--7--9------2--5--7--10-----|


e-----------------------|
B-----------------------|
G-----------------------|
D--7-7-7-7-11-11-11-11--|
A--7-7-7-7-11-11-11-11--|
E--5-5-5-5-9--9--9--9---|


Chorus #2
e---------------------------------------------|
B---------------------------------------------|
G---------------------------------------------|
D--4--9--4--9--4--9--4--9--11--12--11--14--4--|
A--4--9--4--9--4--9--4--9--11--12--11--14--4--|
E--2--7--2--7--2--7--2--7--9---10--9---12--2--|


e-------------------|
B-------------------|
G-------------------|
D---------------4---|    x2
A------4--4--2------|
E---2---------------|


During Guitar Solo
e----------------------------------------------------|
B----------------------------------------------------|
G----------------------------------------------------|
D---4--7--9--12------4--7--9--11-----4--7--9--12-----|
A---4--7--9--12------4--7--9--11-----4--7--9--12-----|
E---2--5--7--10------2--5--7--9------2--5--7--10-----|


e-----------------------|
B-----------------------|
G-----------------------|
D--7-7-7-7-11-11-11-11--|
A--7-7-7-7-11-11-11-11--|
E--5-5-5-5-9--9--9--9---|


Chorus #3
e-------------------|
B-------------------|
G-------------------|
D---------------4---|
A------4--4--2------|
E---2---------------|


Bridge #3
e----------------------------------------------------|
B----------------------------------------------------|
G----------------------------------------------------|
D---4--7--9--12------4--7--9--11-----4--7--9--12-----|
A---4--7--9--12------4--7--9--11-----4--7--9--12-----|
E---2--5--7--10------2--5--7--9------2--5--7--10-----|

e-----------------------|
B-----------------------|
G-----------------------|
D--7-7-7-7-11-11-11-11--|
A--7-7-7-7-11-11-11-11--|
E--5-5-5-5-9--9--9--9---|


Chorus #3
e---------------------------------------------|
B---------------------------------------------|
G---------------------------------------------|
D--4--9--4--9--4--9--4--9--11--12--11--14--4--|
A--4--9--4--9--4--9--4--9--11--12--11--14--4--|
E--2--7--2--7--2--7--2--7--9---10--9---12--2--|


e-------------------|
B-------------------|
G-------------------|
D---------------4---|    x2
A------4--4--2------|
E---2---------------|

e---------------------------------------------|
B---------------------------------------------|
G---------------------------------------------|
D--4--9--4--9--4--9--4--9--11--12--11--14--4--|
A--4--9--4--9--4--9--4--9--11--12--11--14--4--|
E--2--7--2--7--2--7--2--7--9---10--9---12--2--|

e-----------------------|
B-----------------------|
G-----------------------|
D---------------4---4/--|
A------4--4--2------4/--|
E---2---------------2/--|
Tap to rate this tab
 
# A B C D E F G H I J K L M N O P Q R S T U V W X Y Z