Song name
# A B C D E F G H I J K L M N O P Q R S T U V W X Y Z

Crabby Appleton - Go Back tab

Help us improve GuitareTab! Take a short survey!
Link to the Band:
(the band does not have an official site but here are some articles on them on Allmusic 
and Wikipedia:)

http://allmusic.com/cg/amg.dll?p=amg&sql=11:tl5s8qztbtn4
http://en.wikipedia.org/wiki/Crabby_Appleton

Here's this pop/rock ditty from 1970
Intro:
  G#               E
E|--------------------------------|
B|--------------------------------|
G|--------------------------------|
D|--------------------------------|
A|6-6-6-6-6-6-6-6-2-2-2-2-2-2-2-2-|
E|4-4-4-4-4-4-4-4-0-0-0-0-0-0-0-0-| x2

then you join the bass which keeps its pattern and you just do single strums of G#m and E

There's a little arpeggio that goes like this or some variation on the E scale

E|------4-------4---------4-------|
B|----4-------4-------5-4---------|
G|--4-------4-------4-------6-4---|
D|6-------6-------6---------------|
A|--------------------------------|
E|--------------------------------|

          G#m        E
You don`t hold me so well
          G#m        C#7
And it`s not hard to tell
          E           F#
When you know in your heart
           G#
That it`s wrong

          G#m        E
`Cause your thoughts are not here
          G#m        C#7
And you`re making it clear
         E        F#
That the one you love
    G#
is gone

G#                              *
Well, I can`t tell you your life, no
B                          **
I can`t tell you what to do
        Bb   ***        A
But you know, yes, you know
           G#
Thats it`s true

{In this F# you can also play a F#5 - F#6 shuffle}

F#
I think you better go back
                    F#-F-E
Go back to your lover, go back
He`s the one you really love
F#
Go back, go back to your bed
      F#-F-E
I said, go back
He`s the one you`re thinking of

F#
Go back, go back to your bed
          F#-F-E
I said go back, girl
                        F#
As fast as you can, go back


          G#m        E
Now you look good to me
          G#m        C#7
Still, I can`t help but see
          E           F#
You`ve been thinking of him
           G#
All the time

          G#m        E
And you know it`s not right
          G#m        C#7
When you kiss me tonight
        E        F#
You pretend his lips
       G#
 are mine

G#                              *
Well, I can`t tell you your life, no
B                          **
I can`t tell you what to do
        Bb   ***        A
But you know, yes, you know
           G#
Thats it`s true


F#
I think you better go back
                    F#-F-E
Go back to your lover, go back
He`s the one you really love
F#
Go back, go back to your bed
      F#-F-E
I said, go back
He`s the one you`re thinking of

F#
Go back, go back to your bed
          F#-F-E
I said go back, girl
                        F#
As fast as you can, go back


Guitar Fills:

*
E|-------7-10b11r10h9h7-----------|
B|9~~~-9-----------------9--------|
G|--------------------------------|
D|--------------------------------|
A|--------------------------------|
E|--------------------------------|

**

E|10^^^10--7h9h7------------------|
B|--------------------------------|
G|--------------------------------|
D|--------------------------------|
A|--------------------------------|
E|--------------------------------|

**

E|14h17-14-----------------------------|
B|---------17~------14-----------------|
G|-------------16^------13~~-13h11h13--|
D|-------------------------------------|
A|-------------------------------------|
E|-------------------------------------|

tabbed by gabriel Encinas
Related for Go Back tab