Guitaretab - guitar tabs
Song name
# A B C D E F G H I J K L M N O P Q R S T U V W X Y Z

Cracker - Get Off This tab

Artist: Cracker
Song: Get off this
Tabber: Frankv

b = bend
v = vibrato

The chord progression throughout the whole song is C  Am  F  C

Intro
e||----------------------------------------||
B||----------------------------------------||
G||--------------------3----------3--------||
D||----------------3-6--------3-6----------||
A||-----4-6-6b-4-6-------6b-4-------6b-4---||
E||-4-6----------------------------------6-||

Solo

   3 times
e||----------------------------8---------------8----------||
B||-----------------------8-11------------8-11------------||
G||---------8-10-10b-8-10--------10b-8-10--------10b-8----||
D||----8-10--------------------------------------------10-||
A||-10----------------------------------------------------||
E||-------------------------------------------------------||
[ Tab from: http://www.guitaretab.com/c/cracker/4223.html ]
   once
e||----------------------------8---------------8-8v------||
B||-----------------------8-11------------8-11-----------||
G||---------8-10-10b-8-10--------10b-8-10-----------8----||
D||----8-10-------------------------------------------10-||
A||-10---------------------------------------------------||
E||------------------------------------------------------||

   Once
e||----------------------------8-----------------------------||
B||-----------------------8-11-------------------------------||
G||---------8-10-10b-8-10--------10b-8-10b-10br-8-10b-10b----||
D||----8-10-----------------------------------------------10-||
A||-10-------------------------------------------------------||
E||----------------------------------------------------------||

   Once
e||------------------------------------------------11b----8-||
B||-------------------------------------------8-11-----11---||
G||---------8-10-10b-8-10b-10b-10b-10br-8-10b---------------||
D||----8-10-------------------------------------------------||
A||-10------------------------------------------------------||
E||---------------------------------------------------------||
Related for Get Off This tab