Guitaretab - guitar tabs
Song name
# A B C D E F G H I J K L M N O P Q R S T U V W X Y Z
Home / G / Cracker / Low tab

Cracker - Low tab

-------------------------------------------------------------------------------
			     LOW - Cracker
-------------------------------------------------------------------------------
Tabbed by: K. Goad (Kuro Noizu)
Email:kagesoujin@hotmail.com

Tuning:Standard

Guitar 1 - Simple chord riff, D, then C, then E5, then G in the following pattern.  
the verse it is an acoustic guitar and then switches to the same as guitar 2, an electric distorted.

   v   v^v   vv  v   v^v    vv
e|-2---222------------------33-------------------------------------------------------|
B|-3---333---11-------------33-------------------------------------------------------|
G|-2---222---------------------------------------------------------------------------|
D|-----------22---2---222------------------------------------------------------------|
A|-----------33---2---222---22-------------------------------------------------------|
E|----------------0---000---33-------------------------------------------------------|

Guitar 2 has two parts, the first is played at the intro and chorus:
[ Tab from: http://www.guitaretab.com/c/cracker/4227.html ]
e|---------------------------------------------------------------------------|
B|-44554h5-55454554h5--88----------------------------------------------------|
G|-44444---44444444----44----------------------------------------------------|
D|---------------------------------------------------------------------------|
A|---------------------------------------------------------------------------|
E|---------------------------------------------------------------------------|

The second is played during the verse, and sounds mostly clean:

e|--11b12--------------------------------------------------------------------|
B|---------------------------------------------------------------------------|
G|9--------------------------------------------------------------------------|
D|---------------------------------------------------------------------------|
A|---------------------------------------------------------------------------|
E|---------------------------------------------------------------------------|

Then the solo, with distortion
e|---------------------------------------------------------------------------|
B|---------------------------------------------------------------------------|
G|---------------------------------------------------------------------------|
D|--9b--9--9-----------------------------------------------------------12----|
A|--12b-10-10----------------10---1010101010-10-10---------10h10-12s14---14--|
E|------------10-12-12-10h12---12-1514141210-10-10h12-10h12------------------|

e|------------------------------------------|
B|-----11-12-11-----------------------------|
G|---14---------12--1414-1212-1414-1414-14--|
D|------------------------------------------|
A|------------------------------------------|
E|------------------------------------------|

That's about it.

| b  bend
| /  slide up
| \  slide down
| h  hammer-on
| p  pull-off
| ~  vibrato
| +  harmonic
| x  Mute note
===============================================================================
Related for Low tab
Low chords by Cracker