Song name
# A B C D E F G H I J K L M N O P Q R S T U V W X Y Z

Cracker - Take Me Down To The Infirmary tab

This is my first published tab. I think I have the Intro and Solo Dead-On. Comments are 
Sorry, But no timing, and little notation.

Intro
      ^1            -->
E------------------------------------------------------------------------|
B------------------------13-13-------------------------------------------|
G-----12-12-10-----12/14-------12-12------12-13-14--12\10-10H12P10--10---|
D--10---------------------------------------------------------------10H12|
A------------------------------------------------------------------------|
E------------------------------------------------------------------------|


            ^1              ^1
E------------------------------------------------------------------------|
B--------------------------(13)(13)(13)(13)------------------------------|
G--10-12-10-12/12P10-12-10--12/ 12--10--12--------------10-10----10------|
D-------------------------------------------10-10-10/12-------12---------|
A------------------------------------------------------------------------|
E------------------------------------------------------------------------|

So far he solos on a variation of the F major pentatonic, but switches for
the last part to a f minor pentatonic.
   Minor         Major               Verse
   ^1
E--------------|-------------------|---------------------------------------|
B--11/11-------|-------------------|---------------------------------------|
G--------13P10-|-10-10-10----------|---------------------------------------|
D--------------|-10H12P10----------|---------------------------------------|
A--------------|----------12----10-|---------------------------------------|
E--------------|-------------13----|-13------------------------------------|


Notes: ^1 means bend a whole step.
Tap to rate this tab
# A B C D E F G H I J K L M N O P Q R S T U V W X Y Z