Song name
# A B C D E F G H I J K L M N O P Q R S T U V W X Y Z

Crackjaw - Cage tab

Help us improve GuitareTab! Take a short survey!
ARTIST: CRACKJAW
SONG: CAGE
ALBUM: STIFF

TABED BY: TOM MOORE


INTRO:
(NOT EXACT TIMING OR EXACT NUMBER OF NOTES)
----------------------------------------------------|
----------------------------------------------------| ONLY ONCE
----------------------------------------------------|
----------9999999--88888888--7777777----------------|
----------------------------------------------------|

----------------------------------------------------| AFTER FIRST
----------------------------------------------------| TIME PLAY
----------------------------------------------------| THIS TWO
----------------------------------------------------| TIMES
-22222222--9999999--8888888--99---------------------|
----------------------------------------------------|

BRIDGE/CHORUS:

----------------------------------------------------|
----------------------------------------------------|
----------------------------------------------------|
-22222222--44--333333333--44------------------------|
-22222222--44--333333333--44------------------------|
-00000000--22--111111111--22------------------------|

----------------------------------------------------|
----------------------------------------------------|
----------------------------------------------------|
-22222222--44--333333333--44------------------------|
-22222222--44--333333333--44------------------------|
-00000000--22--111111111--22---3210--3210-----------|

THIS IS LIKE A EXTRA RIFF ADDED IN IN TWO PARTS OF THE SONG
YOULL FIND THEM THERE AFTER THE CHORUS BUT NOT EVER ONE SO
FIGURE IT OUT ITS EASY

---------------------------------------------------|
---------------------------------------------------|
---------------------------------------------------|
-3210--3210--3210----------------------------------|
-3210--3210--3210----------------------------------|
-3210--3210--3210----------------------------------|


VERSE:
----------------------------------------------------|
----------------------------------------------------|
----------------------------------------------------|
----------------------------------------------------|
-2-(LET RING)----------98----8899-------------------|
----------------------------------------------------|

DOWNLOAD THIS SONG ON mp3.COM ALONG WITH SOME FROM SIMPLE WISDOM
TWO VERY GOOD BANDS FROM AROUND MY EREA.  GREAT SONG SO I ADVISE
YOU DOWNLOAD IT. O YEA AND SOMEONE TAB SOME POISON THE WELL I DONT
HAVE NE MORE TIME TO TAB SHIT SO HERE YA GO LATER...........
Related for Cage tab