Song name
# A B C D E F G H I J K L M N O P Q R S T U V W X Y Z

Craft Spells - Your Tomb tab

-------------------------------------------------------------------------------
			     YOUR TOMB - Craft Spells
-------------------------------------------------------------------------------
Tabbed by: Volpone/Fran


Tuning:standard

Intro: D Bm D Bm
       G A  G A



Chorus
    D             Bm            D               Bm
e|------------------------------------------------------------| 
B|--10------10------------------10------10--------------------| 
G|------11-----11--9----------------11-----11---9-------------| 
D|---------------------12--11---------------------12---11-----| 
A|------------------------------------------------------------| 
E|------------------------------------------------------------|

   G    A                 G     A
e|---------------------------------------------------|
B|---------------------------------------------------|
G|------11---9---11---9--------11--9----11---9-------|
D|--9---------------------9--------------------------|
A|---------------------------------------------------|
E|---------------------------------------------------|



Verse:
D  Bm  D  Bm
G  A   G  A


Solo

e|---------------------------------------------------------|
B|---------------------------------------------------------|
G|--4b------4--2-------------------2---4b--4---2------2----|
D|-----------------4--------2--4-------------------4-------|
A|---------------------------------------------------------|
E|---------------------------------------------------------|

e|------------------------------------------------|
B|------------------------------------------------|
G|-------------------------2--2-------------------|
D|--------4-4--2--2--4-4--------4-4--2----4-------|
A|--2--2------------------------------------------|
E|------------------------------------------------|

e|------------------------------------------------|
B|------------------------------------------------|
G|-------------------------2----------------2-----|
D|--------4-4--2--2--4-4--------4---2----4--------|
A|--2--2------------------------------------------|
E|------------------------------------------------|  X2

website:http://craftspells.tumblr.com/
song: http://www.youtube.com/watch?v=aG6VF-B082o
album: http://pitchfork.com/reviews/albums/15280-idle-labor/
Tap to rate this tab
 
# A B C D E F G H I J K L M N O P Q R S T U V W X Y Z