Song name
# A B C D E F G H I J K L M N O P Q R S T U V W X Y Z

Craig Cardiff - Circus tab

Circus -- Craig Cardiff

Intro/Verse: (w/ timing and Dsus variations)
-----x-------x-----2-x-2--------------|
---3-x-----3-x-----3-x-3--------------|
---0-x-----0-x-----2-x-2---0---0------|
-----x-------x-0-----x----------------|
-----x-2h3---x-------x----------------|
-0---x-------x-------x---3---2--------|

Chorus:
-----x-------------x-----x-----3p2------x-------x-------x---|
---1-x-1-1-------0-x-0-0-x-0---3------3-x-3---3-x-3---3-x-3-|
---0-x-0-0-------0-x-0-0-x-0---2------2-x-0---0-x-0---0-x-0-|
-----x-------------x-----x---0------0---x-------x-------x---|
-3---x--3---2------x-----x--------------x-------x-------x---|
-----x---------3---x--3--x--------------x---3---x---3---x---|

-----x-------------x-----x----2-x-2-2-x-2-2-x-2-2-x-2--|
---1-x-1-1-------0-x-0-0-x-0--3-x-3-3-x-3-3-x-3-3-x-3--|
---0-x-0-0-------0-x-0-0-x-0--2-x-2-2-x-2-2-x-2-2-x-2--|
-----x-------------x-----x---0--x--0--x--0--x--0--x----| 4 more D reps, then
-3---x--3---2------x-----x------x-----x-----x-----x----| to verse riff
-----x---------3---x--3--x------x-----x-----x-----x----|


Oh, and say, how did you sneak in, I thought all the doors had been closed
Say, now that you're here I, I don't think I could stand to see you go, sayin'
I am only I, I am only I, and you are only you
We, we are only we, and for, for a little while

Chorus:
With the night as our blanket, and the ghosts in the yard
And you lean in close and say, and say, "I think we can
go far, I think we can go far."

Oh, me I'm always drowning in, in whiskey and wine, and
Dear, oh, dear, look how I've managed to, oh, make a circus (of us) this time
And I am only I, I am only I, and, and you are only you and
We, we are only we, and for, for a little while

With the night as our blanket, and the ghosts in the yard
And you lean in close and say (hold guitar riff), and say..., "I think we can
go far" I say, "I, I think we can go..." say, "I, I think we can go....."
I oh, I oh, I oh, I oh.....
Ooooooooh.....
I.....  I.....  I.....  I.....

Fade out or end G
Tap to rate this tab
 
# A B C D E F G H I J K L M N O P Q R S T U V W X Y Z