Song name
# A B C D E F G H I J K L M N O P Q R S T U V W X Y Z

Craig David - Separate Ways tab

Artist- Craig David
Song- Separate Ways
Album- The Story Goes...
Tabbed by- Oliver L.
8/18/05

This is the main riff throughout the song.

---------------------------------------------------------|
-0h1p0-----1------3------5-------------------------------|
-------0-2---2--4---4--5---5-----------------------------|
---------------------------------------------------------|
---------------------------------------------------------|
---------------------------------------------------------|

this part has two variations
variation 1
--------------------------5------------------------------|
-0h1p0-----1------3---------5----------------------------|
-------0-2---2--4---4--5---------------------------------|
---------------------------------------------------------|
---------------------------------------------------------|
---------------------------------------------------------|
variation 2
--------------------------5-----5-7-7s8------------------|
-0h1p0-----1------3---------5----------------------------|
-------0-2---2--4---4--5---------------------------------|
---------------------------------------------------------|
---------------------------------------------------------|
---------------------------------------------------------|
Tap to rate this tab
 
# A B C D E F G H I J K L M N O P Q R S T U V W X Y Z