Guitaretab - guitar tabs
Song name
# A B C D E F G H I J K L M N O P Q R S T U V W X Y Z

Cranberries - " Zombie " tab

Artist: The Cranberries
Song: Zombie
Album: No Need To Argue (1994)


This song consist of 4 chords: Em, C, G, D/F#
▼= move down with the plectrum
▲= move up with the plectrum
h= hammer on
p= pull of
s= slide

Intro:
    Em               C                G                D/F#
     ▼▼▼ ▼▲▲▼ ▼▲▼     ▼▼▼ ▼▲▲▼ ▼▲▼     ▼▼▼ ▼▲▲▼ ▼▲▼     ▼▼▼ ▼▲▲▼ ▼▲▼
E |----------------|----------------|----------------|----------------|
B |--000-0000-000--|--111-1111-111--|--000-0000-000--|--333-3333-333--|
G |--000-0000-000--|--000-0000-000--|--000-0000-000--|--222-2222-222--|
D |--222-2222-222--|--222-2222-222--|--000-0000-000--|--000-0000-000--|
A |--222-2222-222--|--333-3333-333--|--222-2222-222--|--000-0000-000--|
E |----------------|----------------|----------------|----------------|

Guitar 1:
    Em           C            G            D/F#
E |------------|------------|------------|------------|
B |------------|------------|------------|------------|
G |--00000000--|--00000000--|--00000000--|--22222222--|   play this 2x
D |--22222222--|--22222222--|--00000000--|--00000000--| ends 2nd time after 
A |--22222222--|--33333333--|--22222222--|--00000000--| D/F#, with Em.
E |--00000000--|--00000000--|--33333333--|--22222222--|

Guitar 2:
(only 2nd time)
    Em                C                 G                 G
E |----------0------|----------0------|----------0------|--0-------0--|
B |--0-0---0---0----|--1-1---1---1----|--0-0---0---0----|----3---3----|
G |------0-------0--|------0-------0--|------0-------0--|------0------| 
D |-----------------|-----------------|-----------------|-------------| 
A |-----------------|-----------------|-----------------|-------------|
E |-----------------|-----------------|-----------------|-------------|


Bridge:

E |--7h8-5h7-3h5---2h3p2--------|
B |--------------5-------3-3----|
G |--------------------------4--|  guitar 1 plays chords Em, C, G, D/F#
D |-----------------------------|
A |-----------------------------|
E |-----------------------------|


Verse 1 and 2:
    Em    C     G     G
E |--0--|--0--|--3--|--0--------|
B |--0--|--1--|--3--|----3---3--|
G |--0--|--0--|--0--|------0----|  play this 4x
D |--2--|--2--|--0--|-----------|
A |-----|-----|-----|-----------|
E |-----|-----|-----|-----------|


Chorus:
    Em           C            G            D/F#
E |------------|------------|------------|------------| This is what Noel
B |------------|------------|------------|------------| Hogan plays, but
G |--00000000--|--00000000--|--00000000--|--22222222--| you can also play
D |--22222222--|--22222222--|--00000000--|--00000000--| full chords, if you
A |--22222222--|--33333333--|--22222222--|--00000000--| want, with your
E |--00000000--|--00000000--|--33333333--|--22222222--| own rhythm.


Solo:

E |--7h8-5h7-7-7-7---7h8-5h7-7-7-7---7h8-5h7-7-7-7--|
B |-------------------------------------------------|
G |-------------------------------------------------|
D |-------------------------------------------------|
A |-------------------------------------------------|
E |-------------------------------------------------|

E |--7h8-5h7-2222--2-3-5-2222--2-3-5-2222--2-3-5-2222-0-2s5-5-7-7-5555--|
B |----------0000--0-0-0-0000--0-0-0-0000--0-0-0-0000-0-0---0-0-0-0000--|
G |---------------------------------------------------------------------|
D |---------------------------------------------------------------------|
A |---------------------------------------------------------------------|
E |---------------------------------------------------------------------|

E |--5-7-7-5555--5s2-2-2-0-0-22--2-3-5-2222--2-3-5-2222--2-3-5-2--2-0-0--|
B |--0-0-0-0000--0---0-0-0-0-00--0-0-0-0000--0-0-0-0000--0-0-0-0--0-0-0--|
G |----------------------------------------------------------------------|
D |----------------------------------------------------------------------|
A |----------------------------------------------------------------------|
E |----------------------------------------------------------------------|


Song structure:
Intro
Bridge
Verse 1
Chorus 4x (ends with Em)
Bridge
Verse 2
Chorus 4x
Solo

Enjoy!!!

This is all my own work. If you see a little mistake or you want to ask me something about this song or other transcriped songs (mine of course), mail me!
Sander_vande_water@hotmail.com

[ Tab from: http://www.guitaretab.com/c/cranberries/23858.html ]
Related for " Zombie " tab
" Zombie " chords by Cranberries