Song name
# A B C D E F G H I J K L M N O P Q R S T U V W X Y Z

Cranberries - " Ode To My Family " tab

Artist: The Cranberries
Song: Ode to my Family
Album: No Need To Argue (1994)
				

H= hammer on
P= pull off

On the neck of the guitar is a Capo in the 2nd fret. 

Intro:

E |-------|-------|-------|-------|
B |--5-3--|--5-3--|--5-2--|--5-3--|
G |-------|-------|-------|-------| play this 2x
D |-------|-------|-------|-------| 2nd guitar plays the chords: 
A |-------|-------|-------|-------| D, Bm, F#m and G
E |-------|-------|-------|-------|


Intro, Verse 1 and 2:
    D				  Bm
E |---------------------|---------------------|
B |--3-----3-----3------|--3-----3-----3------|
G |----2-----2-----2----|----4-----4-----4----|
D |------4-----4-----4--|------4-----4-----4--|
A |--5------------------|---------------------|
E |---------------------|--2------------------|

    F#m			  G
E |---------------------|---------------------|
B |--2-----2-----2------|--2------------------|
G |----2-----2-----2----|----4---2h4p2-2h4p2--| this is played a
D |------4-----4-----4--|------5--------------| lot of times
A |---------------------|---------------------|
E |--2------------------|--3------------------|


Chorus:

The following chords are played in this order, each one measure:

  D  Bm  F#m  G
|-2-|-2-|-2-|-2-|
|-3-|-3-|-2-|-2-|
|-2-|-4-|-2-|-4-|
|-4-|-4-|-4-|-5-|
|-5-|-2-|-4-|-5-|
|---|---|-2-|-3-|

Song structure:
Intro
Verse 1
Chorus
Verse 2
Chorus

Enjoy!!!

This is all my own work. If you see a little mistake or you want to ask me something about this song or other transcriped songs (mine of course), mail me!
Sander_vande_water@hotmail.com



Tap to rate this tab
 
# A B C D E F G H I J K L M N O P Q R S T U V W X Y Z