Song name
# A B C D E F G H I J K L M N O P Q R S T U V W X Y Z

Cranberries - You And Me tab

-------------------------------------------------------------------------------
                             you and me  - Cranberries          
-------------------------------------------------------------------------------
Tabbed by: AYAGD890602

E-mail: ayachucho@hotmail.com   PLEASE RATE, COMMENT AND SUGGEST        

Lead Guitar        Tuning:STANDARD

Intro
 
E|-------------1-------1-----|---------------------------|
B|-----3----------3-------3--|-----4-------3-------3-----|
G|--------3---------3--------|--------3-------3-------3--|
D|--1--------0---------------|-----------0------0--------|
A|---------------------------|--3------------------------|
E|---------------------------|---------------------------|


e|-------------1-------1-----|----------------------------------|
B|-----3----------3-------3--|-----4-------3-------3-Ls-4s-3--L-|
G|--------3---------3--------|--------3-------3-----------------|
D|--1--------0---------------|-----------0------0---------------|
A|---------------------------|--3-------------------------------|
E|---------------------------|----------------------------------|

MOVEMENT 1 
   
e|------------1-------1-----|---------------------------|
B|----3----------3-------3--|-----4-------3-------3-----|
G|-------3---------3--------|--------3-------3-------3--|
D|-1--------0---------------|-----------0------0--------|
A|--------------------------|--3------------------------|
E|--------------------------|---------------------------|


MOVEMENT 2

e|---------------------------|---------------------------|
B|-----3-------4-------4-----|-----3-------4-------4-----|
G|--------3-------3-------3--|--------3-------3-------3--|
D|--0--------1------1--------|--0--------1------1--------|
A|---------------------------|---------------------------|
E|---------------------------|---------------------------|


INTRO

(MOVEMENT 1)

I'm not going out tonight 'cos I don't want to go
I am staying at home tonight 'cos I don't want to know
You revealed a world to me and I would never be
Dwelling in such happiness, your gift of purity

Eh-ee-oh, eh-ee-oh, eh-ee-oh, eh-ee-oh [x2]

(MOVEMENT 2)

Aahh, you and me it will always be
You and me Forever be,
Eternally it will always be you and me


(MOVEMENT 1)

Taylor, Taylor, Taylor, Taylor

I don't pay attention to the ones who never cared
Find your own direction 'cos there's sweetness in the air
You will be the world to me and I will always be
Dwelling in this happiness, your gift of purity

(MOVEMENT 2)

Eh-ee-oh, eh-ee-oh, eh-ee-oh, eh-ee-oh [x2]

Aahh, you and me will always be
You and me Forever be,
Eternally will always be
You and me

Always be You and me
Forever be, Eternally
It will always be You and me
Forever be, Eternally

(MOVEMENT 1)

Taylor, Taylor [x4]
Tap to rate this tab
# A B C D E F G H I J K L M N O P Q R S T U V W X Y Z