Song name
# A B C D E F G H I J K L M N O P Q R S T U V W X Y Z

Cranberries - Just My Imagination tab

 #----------------------------------PLEASE NOTE--------------------------------#
#This file is the author's own work and represents their interpretation of the#
#song. You may only use this file for private study, scholarship, or research.#
#-----------------------------------------------------------------------------#
#-- File created with Instab - http://www.pconline.com/~smcarey/instab.html --#
#-----------------------------------------------------------------------------#

Author/Artist: The Cranberries
Title: Just My Imagination
Transcribed by: Saverain
v strum down
^ strum up
h hammer on
p pull off

Standard Tuning

------|-----6-6-6-6---------5-5-5-5-------3-3-3--3-3--3-3-3-3-----------------|
------|-6---6-6-6-6-----6---6-6-6-6----4--4-4-4--4-4--4-4-4-4--3--5p3-5p3-5-5-|
------|-7---7-7-7-7-----5---5-5-5-5----3--3-3-3--3-3--3-3-3-3--3--3---3---6-6-|
------|-8---8-8-8-8-----7---7-7-7-7----5--5-5-5--5-5--5-5-5-5--5------5---7-7-|
------|-8---8-8-8-8-----8---8-8-8-8----6--6-6-6--6-6--6-6-6-6--5------5---8-8-|
------|-6---6-6-6-6--------------------------------------------3--------------|
  Intro                                v  v ^ ^  ^ v  v ^ v ^

-------------|----------------------------------------------------------------|
---6-6-6-6-6-|----------------------------------------------------------------|
---5-5-5-5-5-|----------------------------------------------------------------|
---7-7-7-7-7-|----------------------------------------------------------------|
---8-8-8-8-8-|----------------------------------------------------------------|
-------------|----------------------------------------------------------------|


--------|---------------------------------------------------------------------|
--------|-6---6---6-6-6-6--6--6-6---6---6-6-6-6--6--4-4---4-4-4-4-4--4--4-4-3-|
--------|-7---7---7-7-7-7--7--5-5---5---5-5-5-5--5--3-3---3-3-3-3-3--3--3-3-3-|
--------|-8---8---8-8-8-8--8--7-7---7---7-7-7-7--7--5-5---5-5-5-5-5--5--5-5-5-|
--------|-8---8---8-8-8-8--8--8-8---8---8-8-8-8--8--6-6---6-6-6-6-6--6--6-6-5-|
--------|-6---6---6-6-6-6--6------------------------------------------------3-|
          v   v   ^ v ^ v  v  ^ v   v   ^ v ^ v  v  ^ v   v ^ v ^ v  v  v ^ v

-----------------------------|------------------------------------------------|
---3--3--3-3-3-6-6-6-6-6-6-6-|------------------------------------------------|
---3--3--3-3-3-5-5-5-5-5-5-5-|------------------------------------------------|
---5--5--5-5-5-7-7-7-7-7-7-7-|------------------------------------------------|
---5--5--5-5-5-8-8-8-8-8-8-8-|------------------------------------------------|
---3--3--3-3-3---------------|------------------------------------------------|
   ^  v  v ^ v ^ v ^ v ^ v ^

-------|-------------------------1---1--1-1--1-1-1-3--1-----------------------|
-------|----------------------3--------------------------3h4-4---4--4-4--4-4--|
-------|-3---3--3-3--3-3-3-5--------------------------------------------------|
-------|----------------------------------------------------------------------|
-------|----------------------------------------------------------------------|
-------|----------------------------------------------------------------------|
  Solo   v   ^  v ^  ^ v ^ v  ^

---------------------------------------|--------------------------------------|
-4-6--4--------------------------------|--------------------------------------|
---------5h7-7---7--5-5--5-5-5-7--5--3-|--------------------------------------|
---------------------------------------|--------------------------------------|
---------------------------------------|--------------------------------------|
---------------------------------------|--------------------------------------|
Tap to rate this tab
# A B C D E F G H I J K L M N O P Q R S T U V W X Y Z