Song name
# A B C D E F G H I J K L M N O P Q R S T U V W X Y Z

Crazy Cavan - Sadie chords

Highlighted       Show chord diagrams
   "Sadie"  by CRAZY CAVAN & THE RHYTHM ROCKERS

intro:
 E                  A             B7    A    E
  |---------|----------------|--------------------|
  |--0------|-0-0-1-2~~------|-2--0~~-0-----------|
  |-----1~~-|------------2~~-|-----------2-1------|
  |---------|----------------|----------------2~~-|
  |---------|----------------|--------------------|
  |---------|----------------|--------------------|


E                 A          B7    A    E
Sadie my lit-tle sadie, i'm crazy over you

E                 A          B7    A    E
Sadie my lit-tle sadie, i'm crazy over you

    A                              E
    You're the beauty of a silver fountain
    A                              E
    You're the beauty of a country mountain
    B
    Like a lonely weeping willow
    A
    In the early morning meadow

E                 A          B7    A    E
Sadie my lit-tle sadie, i'm crazy over you

E                 A          B7    A    E
Sadie my lit-tle sadie, i'm crazy over you

    A                                 E
    You're my summer sunshine of the day
    A                                   E
    You're the silver moonlight of the night
    B
    Hope that we will never part
    A
    Loving feeling in my heart

E                 A          B7    A    E
Sadie my lit-tle sadie, i'm crazy over you

E                 A          B7    A    E
Sadie my lit-tle sadie, i'm crazy over you
 
E                  A             B7    A   E
|---------|----------------|--------------------|
|--0------|-0-0-1-2~~------|-2--0~~-0-----------|
|-----1~~-|------------2~~-|-----------2-1------|
|---------|----------------|----------------2~~-|
|---------|----------------|--------------------|
|---------|----------------|--------------------|

and then one more repeat from the first chorus and thats the whole song
-Bert

http://www.crazycavan.com/story.htm
Tap to rate this tab
# A B C D E F G H I J K L M N O P Q R S T U V W X Y Z