Song name
# A B C D E F G H I J K L M N O P Q R S T U V W X Y Z

Cream - Outside Woman Blues tab

Outside Woman Blues
Disraeli Gears (1967)
by Cream
Guitar: Eric Clapton
Tabbed by:C. Holt & Mr. Z
Tuning:Standard

Intro/Main riff:
 
     Clapton style    OR   this way! 
e|---------------------|---------------------| I think it's E7#9... but after that
B|-----8---------------|-----8---------------| doesn't really matter which
G|-----7---------------|-----7---------------| way you play it because 
D|-----6---------------|-----6---------------| they're the same notes! 
A|-----7------2-----0--|-----7------7-----5--| 
E|-0-0----2h4---0h2----|-0-0----7h9---5h7----|

e|-------------------------------------------|
B|-------------------------------------------|
G|----12-14-15-14----12~---------------------|
D|-14-------------14-----14~~----------------|
A|--------------------------------------5----|
E|----------------------------------5h7------|

Bridge
e|-------------------------------------------------------------------| 
B|-------3----3----3----3--------------------------------------------| 
G|-------2----2----2----2-----12-14-15-14----12~---------------------|
D|-------1----1----1----1--14-------------14-----14~~----------------|
A|-0-1-2-2-22-2-22-2-22-2-------------------------------------5------|
E|--------------------------------------------------------5h7--------|


Intro:
0:00                   x6  
e|---------------------|---------------------------------------------| 
B|-----8---------------|---------------------------------------------|
G|-----7---------------|----12-14-15-14----12~-----------------------|
D|-----6---------------|-14-------------14-----14~~------------------|
A|-----7------2-----0--|--------------------------------------5------|
E|-0-0----2h4---0h2----|----------------------------------5h7--------|

Main:
0:17                   x2
e|---------------------|---------------------------------------------| 
B|-----8---------------|---------------------------------------------|
G|-----7---------------|----12-14-15-14----12~-----------------------|
D|-----6---------------|-14-------------14-----14~~------------------|
A|-----7------2-----0--|--------------------------------------5------|
E|-0-0----2h4---0h2----|----------------------------------5h7--------|

0:24
e|-------------------------------------------------------------------| 
B|-------3----3----3----3--------------------------------------------| 
G|-------2----2----2----2-----12-14-15-14----12~---------------------|
D|-------1----1----1----1--14-------------14-----14~~----------------|
A|-0-1-2-2-22-2-22-2-22-2-------------------------------------5------|
E|--------------------------------------------------------5h7--------|


0:33                   x2
e|---------------------|---------------------------------------------| 
B|-----8---------------|---------------------------------------------|
G|-----7---------------|----12-14-15-14----12~-----------------------|
D|-----6---------------|-14-------------14-----14~~------------------|
A|-----7------2-----0--|--------------------------------------5------|
E|-0-0----2h4---0h2----|----------------------------------5h7--------|

0:42                   x2
e|---------------------|---------------------------------------------| 
B|-----8---------------|---------------------------------------------|
G|-----7---------------|----12-14-15-14----12~-----------------------|
D|-----6---------------|-14-------------14-----14~~------------------|
A|-----7------2-----0--|--------------------------------------5------|
E|-0-0----2h4---0h2----|----------------------------------5h7--------|

0:50
e|-------------------------------------------------------------------| 
B|-------3----3----3----3--------------------------------------------| 
G|-------2----2----2----2-----12-14-15-14----12~---------------------|
D|-------1----1----1----1--14-------------14-----14~~----------------|
A|-0-1-2-2-22-2-22-2-22-2-------------------------------------5------|
E|--------------------------------------------------------5h7--------|

1:00                   x2
e|---------------------|---------------------------------------------| 
B|-----8---------------|---------------------------------------------|
G|-----7---------------|----12-14-15-14----12~-----------------------|
D|-----6---------------|-14-------------14-----14~~------------------|
A|-----7------2-----0--|--------------------------------------5------|
E|-0-0----2h4---0h2----|----------------------------------5h7--------|

1:09                   x2
e|---------------------|---------------------------------------------| 
B|-----8---------------|---------------------------------------------|
G|-----7---------------|----12-14-15-14----12~-----------------------|
D|-----6---------------|-14-------------14-----14~~------------------|
A|-----7------2-----0--|--------------------------------------5------|
E|-0-0----2h4---0h2----|----------------------------------5h7--------|

1:18 ...this bridge is played slightly slower so compensate for it....
e|-------------------------------------------------------------------| 
B|-------3----3----3----3--------------------------------------------| 
G|-------2----2----2----2-----12-14-15-14----12~---------------------|
D|-------1----1----1----1--14-------------14-----14~~----------------|
A|-0-1-2-2----2----2----2-------------------------------------5------|
E|--------------------------------------------------------5h7--------|

Solo:
1:29                                                 
e----------------------------------------------------------------12----------------|
B--------12--------------------------------------------15b(17)~~----15-------------|
G--12-14----14-12-14-12-----12-14-15-14-12----12-----------------------14b(16)-14--|
D------------------------14----------------14----14--------------------------------|
A----------------------------------------------------------------------------------|
E----------------------------------------------------------------------------------|
                         

                               1:37
e-------------------------------------------12-----15b(17)-15b(17)-15-12-----------|
B----------------------------------------12-----12-----------------------12--------|
G-12-14-12-----------14----12----14b(16)------------------------------------14b(16)|
D----------14-14-14-----14----14---------------------------------------------------|
A----------------------------------------------------------------------------------|
E----------------------------------------------------------------------------------|
                                                                            


                                           1:45
e-----------------------------------------------17b(19)-17b(19)-19-17-19---17b(19)-|
B--------------------------------------------17--------------------------17--------|
G--14-12-14-12~~-----12-14-15-14-12----12------------------------------------------|
D-----------------14----------------14----14---------------------------------------|
A----------------------------------------------------------------------------------|
E----------------------------------------------------------------------------------|
                                              


e-17-19-17----15b(17)--------------------------------------------------------------|
B----------17---------15b(17)--------15p12----12-----------------------------------|
G-----------------------------16\14~~~-----14----14b(16)-16-12b(13)hb(13)----------|
D-------------------------------------------------------------------------14~~~----|
A----------------------------------------------------------------------------------|
E----------------------------------------------------------------------------------|

1:55                   x2
e|---------------------|---------------------------------------------| 
B|-----8---------------|---------------------------------------------|
G|-----7---------------|----12-14-15-14----12~-----------------------|
D|-----6---------------|-14-------------14-----14~~------------------|
A|-----7------2-----0--|--------------------------------------5------|
E|-0-0----2h4---0h2----|----------------------------------5h7--------|

2:03                   x2
e|---------------------|---------------------------------------------| 
B|-----8---------------|---------------------------------------------|
G|-----7---------------|----12-14-15-14----12~-----------------------|
D|-----6---------------|-14-------------14-----14~~------------------|
A|-----7------2-----0--|--------------------------------------5------|
E|-0-0----2h4---0h2----|----------------------------------5h7--------|

Outro: 
2:11
e|-----------------------------------------------------| 
B|-------3----3----3----3----3----3----3----3----------| 
G|-------2----2----2----2----2----2----2----2----------|
D|-------1----1----1----1----1----1----1----1----------|
A|-0-1-2-2----2----2----2----2----2----2----2----------|
E|-----------------------------------------------------|

I wasn't feeling too saucy that's why we don't have lyrics today... 
Tap to rate this tab
 
# A B C D E F G H I J K L M N O P Q R S T U V W X Y Z