Song name
# A B C D E F G H I J K L M N O P Q R S T U V W X Y Z

Cream - Anyone For Tennis tab

    --------------------------------------------------------

    CREAM - ANYONE FOR TENNIS (Clapton & Sharp). Released as
            a sigle, with PRESSED RAT AND WARTHOG as B side,
            in May 1968.

    --------------------------------------------------------

    Tabbed by:PJVillanueva





    Twice upon a time in the valley of the tears
    The auctioneer is bidding for a box of fading years
    And the elephants are dancing on the graves of squealing mice.
    Anyone for tennis, wouldn't that be nice?

    And the ice creams are all melting on the streets of bloody beer
    While the beggars stain the pavements with flourescent Christmas cheer
    And the Bentley driving guru is putting up his price.
    Anyone for tennis, wouldn't that be nice?

    And the prophets in the boutiques give out messages of hope
    With jingle bells and fairy tales and blind colliding scopes
    And you can tell they're all the same underneath the pretty lies.
    Anyone for tennis, wouldn't that be nice?

    The yellow Buddhist monk is burning brightly at the zoo
    You can bring a bowl of rice and then a glass of water too
    And fate is setting up the chessboard while death rolls out the dice.
    Anyone for tennis, wouldn't that be nice?



           
     INTRO

                           
    G                       C G C   G
  e|----3-- --3-3-- --3-3-- 3-3-3--|3---3-- --3-3-- --3-3-- 3-3-3-3|
  B|----3-----3-3-----3-3---1-0-1--|3---3-----3-3-----3-3---1-0-1-0|
  G|0---0-----0-0-----0-0---0-0-0--|0---0-----0-0-----0-0---0-0-0-0|
  D|0---0-----0-0-----0-0---2-0-2--|0---0-----0-0-----0-0---2-0-2-0|
  A|2---2-----2-2-----2-2---x-x-x--|2---2-----2-2-----2-2---x-x-x-x|
  E|3---3-----3-3-----3-3---3-3-3--|3---3-----3-3-----3-3---3-3-3-3|




  e|3---3-- 3-3-3-- --3-3-- 3-3-3-3|----3-- 3-3-3-- ----3-- 3-3-3--|
  B|3---3---3-3-3-----3-3---1-0-1-0|----3---3-3-3-------3---1-0-1--|
  G|0---0---0-0-0-----0-0---0-0-0-0|----0---0-0-0-------0---0-0-0--|
  D|0---0---0-0-0-----0-0---2-0-2-0|----0---0-0-0-------0---2-0-2--|
  A|2---2---2-2-2-----2-2---x-x-x-x|----2---2-2-2-------2---x-x-x--|
  E|3---3---3-3-3-----3-3---3-3-3-3|----3---3-3-3-------3---3-3-3--|



    00:10
    D7sus2          D               D7sus4          D
  e|----0-- 0---0-- ----2-- 2-2-2--|----3-- 3---3-- ----2-- 2-2-2--|
  B|----1---1---1-------3---3-3-3--|----1---1---1-------3---3-3-3--|
  G|2---2---2---2---2---2---2-2-2--|2---2---2---2---2---2---2-2-2--|
  D|0---0---0---0---0---0---0-0-0--|0---0---0---0---0---0---0-0-0--|
  A|-------------------------------|-------------------------------|
  E|-------------------------------|-------------------------------|
    Twice     a time        in  the         of  the tears         The 
        upon                      valley


    C7sus4              C          
  e|----3-- 3---3-- ----3-3 3-3-3--|----3-- 3---3-- ----3-- 3---3--|
  B|----6---6---6-------5-5-5-5-5--|----6---6---6-------5---5---5--|
  G|----3---3---3-------5-5-5-5-5--|----3---3---3-------5---5---5--|
  D|----5---5---5-------5-5-5-5-5--|----5---5---5-------5---5---5--|
  A|3-------------------3-3-3-3-3--|3---------------3---3---3---3--|
  E|-------------------------------|-------------------------------|
    auctioneer  is  bidding for a box   of  fading          and the 
                                                years


    D11                 D      
  e|----3-- 3---3-3 ----2-- --2-2--|----3-- 3-3-3-- ----2-- 2---2-2|
  B|----5---5---5-5-----3-----3-3--|----5---5-5-5-------3---3---3-3|
  G|----5---5---5-5-----2-----2-2--|----5---5-5-5-------2---2---2-2|
  D|0---0---0---0-0-----0-----0-0--|0---0---0-0-0-------0---0---0-0|
  A|-------------------------------|-------------------------------|
  E|-------------------------------|-------------------------------|
 elephants      are dancing on  the     of  squealing 
                                  graves        mice.



    C7sus4            C 
  e|----3-- 3---3-- --3-3-- 3---3-3|3---3-- 3-3-3--|
  B|----6---6---6-----5-5---5---5-5|5---5---5-5-5--|
  G|----3---3---3-----5-5---5---5-5|5---5---5-5-5--|
  D|----5---5---5-----5-5---5---5-5|5---5---5-5-5--|
  A|3-----------------3-3---3---3-3|3---3---3-3-3--|
  E|-------------------------------|---------------|
    Anyone    for tennis,           wouldn't    be  
                                          that


    G
  e|----3-- ----3-- --3-3-- 3---3--|3---3-- 3---3-- ----3-- 3------|
  B|----0-------0-----0-0---0---0--|0---0---0---0-------0---0------|
  G|0---0---0---0-----0-0---0---0--|0---0---0---0---0---0---0------|
  D|0---0---0---0-----0-0---0---0--|0---0---0---0---0---0---0------|
  A|2---2---2---2-----2-2---2---2--|2---2---2---2---2---2---2------|
  E|3---3---3---3-----3-3---3---3--|3---3---3---3---3---3---3------|
    nice?                                                   And the
                                                                  ice

    00:36                                                                

  e|----0-- 0---0-- ----2-- ----2--|----0-- 0---0-- ----2-- 2---2--|
  B|----1---1---1-------3-------3--|----1---1---1-------3---3---3--|
  G|2---2---2---2-------2-------2--|2---2---2---2---2---2---2---2--|
  D|0---0---0---0-------0-------0--|0---0---0---0---0---0---0---0--|
  A|-------------------------------|-------------------------------|
  E|-------------------------------|-------------------------------|
        creams  all melting on  the streets bloody          while beg. 
            are                         of      beer            the



  e|----3-- 3---3-- --3-3-- 3-3-3--|3---3-- --3-3-- ----3-- 3-3-3--|
  B|----6---6---6-----5-5---5-5-5--|5---5-----5-5-------5---5-5-5--|  
  G|----3---3---3-----5-5---5-5-5--|5---5-----5-5-------5---5-5-5--|
  D|----5---5---5-----5-5---5-5-5--|5---5-----5-5-------5---5-5-5--|
  A|3-----------------3-3---3-3-3--|3---3-----3-3-------3---3-3-3--|
  E|-------------------------------|-------------------------------|
    ... gars    the         with          Christmas         and the 
            stain pavements     flourescent         cheer         Ben.



  e|----3-- 3---3-- ----2-- --2-2--|----3-- 3-3-3-- ----2-- 2-2-2--|
  B|----5---5---5-------3-----3-3--|----5---5-5-5-------3---3-3-3-x|  
  G|----5---5---5-------2-----2-2--|----5---5-5-5-------2---2-2-2-x|
  D|----0---0---0-------0-----0-0--|----0---0-0-0-------0---0-0-0-x|
  A|-------------------------------|-------------------------------|
  E|-------------------------------|-------------------------------|
    ... tley      guru        is    putting   his price.
            driving                       up




  e|----3-- 3-3-3-- --3-3-- --3-3--|3---3-- 3-3-3--|
  B|----6---6-6-6-----5-5-----5-5--|5---5---5-5-5--|
  G|3---3---3-3-3-----5-5-----5-5--|5---5---5-5-5--|
  D|5---5---5-5-5-----5-5-----5-5--|5---5---5-5-5--|
  A|3-----------------3-3-----3-3--|3---3---3-3-3--|
  E|-------------------------------|---------------|
    Anyone    for tennis,           wouldn't    be  
                                          that



  e|----3-- ----3-- --3-3-- 3---3--|3---3-- 3---3-- ----3-- 3-3-3--|
  B|----3-------3-----3-3---1---1--|3---3---3---3-------3---1-0-1--|
  G|0---0---0---0-----0-0---0---0--|0---0---0---0---0---0---0-0-0--|
  D|0---0---0---0-----0-0---2---2--|0---0---0---0---0---0---2-0-2--|
  A|2---2---2---2-----2-2---x---x--|2---2---2---2---2---2---x-x-x--|
  E|3---3---3---3-----3-3---3---3--|3---3---3---3---3---3---3-3-3--|
    nice?                                                   And the                
                                                                  pro.


    01:02
    D                   E7
  e|2---2-- 2---2-- ----4-- ----4--|2---2-- --2-2-- ----4-- ----4--|
  B|3---3---3---3-------5-------5--|3---3-----3-3-------5-------5-5|
  G|2---2---2---2-------4-------4--|2---2-----2-2-------4-------4-4|
  D|0---0---0---0-------0-------0--|0---0-----0-0-------0-------0-0|
  A|-------------------------------|-------------------------------|
  E|-------------------------------|-------------------------------|
    ... phets   the         give    messages  of  hope          with 
            in    boutiques     out


    C 
  e|8---8-- ----8-- ----8-- 8---8-8|----8-- 8---8-8 ----8-- --8-8--|
  B|8---8-------8-------8---8---8-8|----8-- 8---8-8 ----8-- --8-8--|
  G|9---9-------9-------9---9---9-9|----9---9---9-9-----9-----9-9--|
  D10--10------10------10--10--1010|---10--10--1010----10----1010--|
  A10--10------10------10--10--1010|---10--10--1010----10----1010--|
  E|8---8-------8-------8---8---8-8|----8---8---8-8-----8-----8-8--|
    jingle  bells fairy     tales blind colliding scopes    you can
                and             and                     and       tell



  e|0---0-- 0---0-- ----2-- 2---2-2|0---0-- ----0-- ----2-- 2------|
  B|1---1---1---1-------3---3---3-3|1---1-------1-------3---3------|
  G|2---2---2---2-------2---2---2-2|2---2-------2-------2---2------|
  D|0---0---0---0-------0---0---0-0|0---0-------0-------0---0------|
  A|-------------------------------|-------------------------------|
  E|-------------------------------|-------------------------------|
        they're   same      underneath  the pretty 
          all   the                               lies.



  e|----3-- 3---3-- ----3-- --3-3-3|3-3-3-- --3-3--|
  B|----6---6---6-------5-----5-5-5|5-5-5-----5-5--|
  G|3---3---3---3-------5-----5-5-5|5-5-5-----5-5--|
  D|5---5---5---5-------5-----5-5-5|5-5-5-----2-2--|
  A|3-------------------3-----3-3-3|3-3-3-----3-3--|
  E|-------------------------------|---------------|
    Anyone    for tennis,           wouldn't    be  
                                          that



  e|----3-3 ----3-- ----3-- 3---3--|----3-- --3-3-- 3-3-3-- ----3--|
  B|----3-3-----3-------3---1---1--|----0-----0-0---0-0-0-------0--|
  G|0---0-0-----0-------0---0---0--|0---0-----0-0---0-0-0-------0--|
  D|0---0-0-----0-------0---2---2--|0---0-----0-0---0-0-0-------2--|
  A|2---2-2-----2-------2---x---x--|2---2-----2-2---2-2-2-------2--|
  E|3---3-3-----3-------3---3---3--|3---3-----3-3---3-3-3-------3--|
    nice?                                                         The




    01:27
    yellow Buddhist monk is burning brightly at the zoo
    You can bring a bowl of rice and then a glass of water too
    And fate is setting up the chessboard while death rolls out the dice.
    Anyone for tennis, wouldn't that be ...


    01:47

  e|----3-- ----3-- --3-3-- 3---3--|3---3-- 3---3-- --3-3-- 3---3-3|
  B|----0-------0-----0-0---0---0--|0---0---0---0-----0-0---0---0-0|
  G|0---0-------0-----0-0---0---0--|0---0---0---0-----0-0---0---0-0|
  D|0---0-------0-----0-0---2---2--|0---0---0---0-----0-0---0---0-0|
  A|2---2-------2-----2-2---x---x--|2---2---2---2-----2-2---2---2-2|
  E|3---3-------3-----3-3---3---3--|3---3---3---3-----3-3---3---3-3|
    nice? 


                                                         

  e|3---3-- 3-3-3-- --3-3-3 3---3--|3---3-- ----3-- --3-3-- ----3--|
  B|0---0---0-0-0-----0-0-0-0---0--|0---0-------0-----0-0-------0--|
  G|0---0---0-0-0-----0-0-0-0---0--|0---0-------0-----0-0-------0--|
  D|0---0---0-0-0-----0-0-0-0---0--|0---0-------0-----0-0-------0--|
  A|2---2---2-2-2-----2-2-2-2---2--|2---2-------2-----2-2-------2--|
  E|3---3---3-3-3-----3-3-3-3---3--|3---3-------3-----3-3-------3--|



    01:57

  e|3---3-- 3-----3 --3-3-3 3---3--|----3-- ----3-- --3-3-- 3-3-3--|
  B|0---0---0-----0---0-0-0-0---0--|----0-------0-----0-0---0-0-0--|
  G|0---0---0-----0---0-0-0-0---0--|----0-------0-----0-0---0-0-0--|
  D|0---0---0-----0---0-0-0-0---0--|----0-------0-----0-0---0-0-0--|
  A|2---2---2-----2---2-2-2-2---2--|----2-------2-----2-2---2-2-2--|
  E|3---3---3-----3---3-3-3-3---3--|----3-------3-----3-3---3-3-3--|

  e|15-\13- ------- ------- -------|15-\13- ------- ------- -------|
  B|--------15-\13--11----/-12-----|--------15-\13--15------10---/-|
  G|----------------11----/-12-----|----------------15------10---/-|
  D|-------------------------------|-------------------------------|
  A|-------------------------------|-------------------------------|
  E|-------------------------------|-------------------------------|
    Slide guitar




  e|----3-- ----3-- --3-3-- 3---3--|----3-- ----3-- --3-3-- 3---3--|
  B|----0-------0-----0-0---0---0--|----0-------0-----0-0---0---0--|
  G|----0-------0-----0-0---0---0--|----0-------0-----0-0---0---0--|
  D|----0-------0-----0-0---0---0--|----0-------0-----0-0---0---0--|
  A|----2-------2-----2-2---2---2--|----2-------2-----2-2---2---2--|
  E|----3-------3-----3-3---3---3--|----3-------3-----3-3---3---3--| 

  e|------- ------- ------- -------|------- ------- ------- -------|
  B|12-----------------------------|-------------------------------|
  G|12-----------------------------|-------------------------------|
  D|-------------------------------|-------------------------------|
  A|-------------------------------|-------------------------------|
  E|-------------------------------|-------------------------------|



    02:08

  e|3---3-- 3-3---3 3-3-3-- 3-3-3--|3---3-- --3-3-- 3-----3 3---3--|
  B|0---0---0-0---0-0-0-0---0-0-0--|0---0-----0-0---0-----0-0---0--|
  G|0---0---0-0---0-0-0-0---0-0-0--|0---0-----0-0---0-----0-0---0--|
  D|0---0---0-0---0-0-0-0---0-0-0--|0---0-----0-0---0-----0-0---0--|
  A|2---2---2-2---2-2-2-2---2-2-2--|2---2-----2-2---2-----2-2---2--|
  E|3---3---3-3---3-3-3-3---3-3-3--|3---3-----3-3---3-----3-3---3--|

  e|15-\13- ------- ------- -------|15-\13- ------- ------- -------|
  B|--------15-\13--11----/-12-----|--------15-\13-/15------10---/-|
  G|----------------11----/-12-----|---------------/15------10---/-|
  D|-------------------------------|-------------------------------|
  A|-------------------------------|-------------------------------|
  E|-------------------------------|-------------------------------|



   

  e|3---3-- 3------ 3---3-- 3---3--|3---3-- 3---3-- 3---3-- ----3--|
  B|0---0---0-------0---0---0---0--|0---0---0---0---0---0-------0--|
  G|0---0---0-------0---0---0---0--|0---0---0---0---0---0---0---0--|
  D|0---0---0-------0---0---0---0--|0---0---0---0---0---0---0---0--|
  A|2---2---2-------2---2---2---2--|2---2---2---2---2---2---2---2--|
  E|3---3---3-------3---3---3---3--|3---3---3---3---3---3---3---3--|



    02:19

  e|3-3-3-- 3-----3 3---3-- 3---3--|3---3-- 3-----3 3---3-3 3---3--|
  B|0-0-0---0-----0-0---0---0---0--|0---0---0-----0-0---0-0-0---0--|
  G|0-0-0---0-----0-0---0---0---0--|0---0---0-----0-0---0-0-0---0--|
  D|0-0-0---0-----0-0---0---0---0--|0---0---0-----0-0---0-0-0---0--|
  A|2-2-2---2-----2-2---2---2---2--|2---2---2-----2-2---2-2-2---2--|
  E|3-3-3---3-----3-3---3---3---3--|3---3---3-----3-3---3-3-3---3--|

  e|15-\13- ------- ------- -------|15-\13- ------- ------- -------|
  B|--------15-\13--11----/-12-----|--------15-\13-/15------10---/-|
  G|----------------11----/-12-----|---------------/15------10---/-|
  D|-------------------------------|-------------------------------|
  A|-------------------------------|-------------------------------|
  E|-------------------------------|-------------------------------|



   

  e|--3-3-- 3-----3 --3-3-- 3-----3|3---3-- 3-3---- 3---3-3 3---3--|
  B|--0-0---0-----0---0-0---0-----0|0---0---0-0-----0---0-0-0---0--|
  G|--0-0---0-----0---0-0---0-----0|0---0---0-0-----0---0-0-0---0--|
  D|--0-0---0-----0---0-0---0-----0|0---0---0-0-----0---0-0-0---0--|
  A|--2-2---2-----2---2-2---2-----2|2---2---2-2-----2---2-2-2---2--|
  E|--3-3---3-----3---3-3---3-----3|3---3---3-3-----3---3-3-3---3--|

  e|------- ------- ------- -------|------- ------- ------- -------|
  B|12----------------------10---/-|12----------------------10--/--|
  G|12----------------------10---/-|12----------------------10--/--|
  D|-------------------------------|-------------------------------|
  A|-------------------------------|-------------------------------|
  E|-------------------------------|-------------------------------|



    02:29

  e|--3-3-- 3-3-3-- 3---3-3 3-3-3-3|3---3-- 3-3-3-- --3-3-- 3-3-3--|
  B|--0-0---0-0-0---0---0-0-0-0-0-0|0---0---0-0-0-----0-0---0-0-0--|
  G|--0-0---0-0-0---0---0-0-0-0-0-0|0---0---0-0-0-----0-0---0-0-0--|
  D|--0-0---0-0-0---0---0-0-0-0-0-0|0---0---0-0-0-----0-0---0-0-0--|
  A|--2-2---2-2-2---2---2-2-2-2-2-2|2---2---2-2-2-----2-2---2-2-2--|
  E|--3-3---3-3-3---3---3-3-3-3-3-3|3---3---3-3-3-----3-3---3-3-3--|

  e|------- ------- ------- -------|------- ------- ------- -------|
  B|12----------------------10---/-|12----------------------10---/-|
  G|12----------------------10---/-|12----------------------10---/-|
  D|-------------------------------|-------------------------------|
  A|-------------------------------|-------------------------------|
  E|-------------------------------|-------------------------------|
    ......................... Fade out ............................




  e|----3-- 3---3-- ------- -------|------- ------- ------- -------|
  B|----0---0---0------------------|-------------------------------|
  G|----0---0---0------------------|-------------------------------|
  D|----0---0---0------------------|-------------------------------|
  A|----2---2---2------------------|-------------------------------|
  E|----3---3---3------------------|-------------------------------|

  e|------- ------- ------- -------|------- ------- ------- -------|
  B|12-----------------------------|-------------------------------|
  G|12-----------------------------|-------------------------------|
  D|-------------------------------|-------------------------------|
  A|-------------------------------|-------------------------------|
  E|-------------------------------|-------------------------------|
    ...............








        B  Bend
        R  Release
        /  Slide up
        \  Slide down
        H  Hammer-on
        P  Pull-off
        ~  Vibrato
        +  Harmonic
        x  Mute note
        .  Play note like a dot in standard notation
        ^  Ties two notes together
        (. Pause



Tap to rate this tab
 
# A B C D E F G H I J K L M N O P Q R S T U V W X Y Z