Song name
# A B C D E F G H I J K L M N O P Q R S T U V W X Y Z

Cream - I Feel Free tab

This tab is 90%-100% correct. I just watched the youtube 
video for the bits that were difficult.

UPDATE/CORRECTION:  This tab is now at least 95% correct, as of
the 29th of May 2007.

It's in E MAJOR.  That is why the other tabs are somewhat
off.  Although, it does change to E blues near the end.  
Standard tuning.  Almost every note is vibrato.

   ++ This beginning note is ambiguous, it sounds like
      he just plays the 14 fret but in the video (which is 
      mimed) he bends from the 13th.
e|----------------------------------------------------|
b|---------------------------12b14--------------------|
g|-14==-(prebend 14)13p11-13-------(13)13===----------|
d|----------------------------------------------------|
a|----------------------------------------------------|
E|----------------------------------------------------|

|----------------------------------------------------|
|-12b14==--(prebend14)12p11--------------------------|
|---------------------------14-13===-----------------|
|----------------------------------------------------|
|----------------------------------------------------|
|----------------------------------------------------|

|------------------------------14b16-----------------|
|-14b16==--(prebend16)14p12-14-------15-14==---------|
|----------------------------------------------------|
|----------------------------------------------------|
|----------------------------------------------------|
|----------------------------------------------------|

|----------------------------------------------------|
|----------------------------------------------------|
|-11b13==--(prebend13)11p9-11p9----9h11-9===---------|
|----------------------------------------------------|
|----------------------------------------------------|
|----------------------------------------------------|

|----------------------------------------------------|
|----------------------------------------------------|
|-11b14==--(prebend14)11p9--------9h11p9----9===-----|
|---------------------------11p9---------11----------|
|----------------------------------------------------|
|----------------------------------------------------|

|----------------17b19--(prebend19)17p15-------------|
|----17-17=---17-------------------------17p15-17==--|
|-16-------------------------------------------------|
|----------------------------------------------------|
|----------------------------------------------------|
|----------------------------------------------------|

|-15h17-15b16----------------------------------------|
|----------------------------------------------------|
|----------------------------------------------------|
|----------------------------------------------------|
|----------------------------------------------------|
|----------------------------------------------------|

(listen to the record very carefully for that end bit - 
you have to bend with your first finger to get the 
strained bend sound)
Tap to rate this tab
# A B C D E F G H I J K L M N O P Q R S T U V W X Y Z